  0
SECTION
  2
HEADER
  9
$ACADVER
  1
AC1015
  9
$ACADMAINTVER
 70
     6
  9
$DWGCODEPAGE
  3
ANSI_1254
  9
$INSBASE
 10
0.0
 20
0.0
 30
0.0
  9
$EXTMIN
 10
0.0
 20
0.0
 30
0.0
  9
$EXTMAX
 10
279.4
 20
215.9
 30
0.0
  9
$LIMMIN
 10
0.0
 20
0.0
  9
$LIMMAX
 10
279.4
 20
215.9
  9
$ORTHOMODE
 70
     0
  9
$REGENMODE
 70
     1
  9
$FILLMODE
 70
     1
  9
$QTEXTMODE
 70
     0
  9
$MIRRTEXT
 70
     1
  9
$LTSCALE
 40
1.0
  9
$ATTMODE
 70
     1
  9
$TEXTSIZE
 40
3.5
  9
$TRACEWID
 40
1.0
  9
$TEXTSTYLE
  7
Standard
  9
$CLAYER
  8
0
  9
$CELTYPE
  6
ByLayer
  9
$CECOLOR
 62
   256
  9
$CELTSCALE
 40
1.0
  9
$DISPSILH
 70
     0
  9
$DIMSCALE
 40
1.0
  9
$DIMASZ
 40
3.5
  9
$DIMEXO
 40
1.0
  9
$DIMDLI
 40
3.75
  9
$DIMRND
 40
0.0
  9
$DIMDLE
 40
0.0
  9
$DIMEXE
 40
1.0
  9
$DIMTP
 40
0.0
  9
$DIMTM
 40
0.0
  9
$DIMTXT
 40
3.5
  9
$DIMCEN
 40
2.5
  9
$DIMTSZ
 40
0.0
  9
$DIMTOL
 70
     0
  9
$DIMLIM
 70
     0
  9
$DIMTIH
 70
     1
  9
$DIMTOH
 70
     1
  9
$DIMSE1
 70
     0
  9
$DIMSE2
 70
     0
  9
$DIMTAD
 70
     1
  9
$DIMZIN
 70
     0
  9
$DIMBLK
  1

  9
$DIMASO
 70
     1
  9
$DIMSHO
 70
     1
  9
$DIMPOST
  1

  9
$DIMAPOST
  1

  9
$DIMALT
 70
     0
  9
$DIMALTD
 70
     3
  9
$DIMALTF
 40
0.0393700787
  9
$DIMLFAC
 40
1.0
  9
$DIMTOFL
 70
     1
  9
$DIMTVP
 40
0.0
  9
$DIMTIX
 70
     0
  9
$DIMSOXD
 70
     0
  9
$DIMSAH
 70
     0
  9
$DIMBLK1
  1

  9
$DIMBLK2
  1

  9
$DIMSTYLE
  2
ISO-25
  9
$DIMCLRD
 70
     0
  9
$DIMCLRE
 70
     0
  9
$DIMCLRT
 70
     0
  9
$DIMTFAC
 40
1.0
  9
$DIMGAP
 40
1.524
  9
$DIMJUST
 70
     0
  9
$DIMSD1
 70
     0
  9
$DIMSD2
 70
     0
  9
$DIMTOLJ
 70
     0
  9
$DIMTZIN
 70
     0
  9
$DIMALTZ
 70
     0
  9
$DIMALTTZ
 70
     0
  9
$DIMUPT
 70
     0
  9
$DIMDEC
 70
     2
  9
$DIMTDEC
 70
     2
  9
$DIMALTU
 70
     2
  9
$DIMALTTD
 70
     3
  9
$DIMTXSTY
  7
Standard
  9
$DIMAUNIT
 70
     0
  9
$DIMADEC
 70
     2
  9
$DIMALTRND
 40
0.0
  9
$DIMAZIN
 70
     0
  9
$DIMDSEP
 70
    44
  9
$DIMATFIT
 70
     3
  9
$DIMFRAC
 70
     0
  9
$DIMLDRBLK
  1

  9
$DIMLUNIT
 70
     2
  9
$DIMLWD
 70
    -2
  9
$DIMLWE
 70
    -2
  9
$DIMTMOVE
 70
     0
  9
$LUNITS
 70
     2
  9
$LUPREC
 70
     2
  9
$SKETCHINC
 40
1.0
  9
$FILLETRAD
 40
10.0
  9
$AUNITS
 70
     0
  9
$AUPREC
 70
     2
  9
$MENU
  1
.
  9
$ELEVATION
 40
0.0
  9
$PELEVATION
 40
0.0
  9
$THICKNESS
 40
0.0
  9
$LIMCHECK
 70
     0
  9
$CHAMFERA
 40
0.0
  9
$CHAMFERB
 40
0.0
  9
$CHAMFERC
 40
0.0
  9
$CHAMFERD
 40
0.0
  9
$SKPOLY
 70
     0
  9
$TDCREATE
 40
2458985.663679282
  9
$TDUCREATE
 40
2458985.538679282
  9
$TDUPDATE
 40
2458985.663679537
  9
$TDUUPDATE
 40
2458985.538679537
  9
$TDINDWG
 40
0.0000000116
  9
$TDUSRTIMER
 40
0.0000000116
  9
$USRTIMER
 70
     1
  9
$ANGBASE
 50
0.0
  9
$ANGDIR
 70
     0
  9
$PDMODE
 70
     0
  9
$PDSIZE
 40
-1.0
  9
$PLINEWID
 40
0.0
  9
$SPLFRAME
 70
     0
  9
$SPLINETYPE
 70
     6
  9
$SPLINESEGS
 70
     8
  9
$HANDSEED
  5
C0
  9
$SURFTAB1
 70
     6
  9
$SURFTAB2
 70
     6
  9
$SURFTYPE
 70
     6
  9
$SURFU
 70
     6
  9
$SURFV
 70
     6
  9
$UCSBASE
  2

  9
$UCSNAME
  2

  9
$UCSORG
 10
0.0
 20
0.0
 30
0.0
  9
$UCSXDIR
 10
1.0
 20
0.0
 30
0.0
  9
$UCSYDIR
 10
0.0
 20
1.0
 30
0.0
  9
$UCSORTHOREF
  2

  9
$UCSORTHOVIEW
 70
     0
  9
$UCSORGTOP
 10
0.0
 20
0.0
 30
0.0
  9
$UCSORGBOTTOM
 10
0.0
 20
0.0
 30
0.0
  9
$UCSORGLEFT
 10
0.0
 20
0.0
 30
0.0
  9
$UCSORGRIGHT
 10
0.0
 20
0.0
 30
0.0
  9
$UCSORGFRONT
 10
0.0
 20
0.0
 30
0.0
  9
$UCSORGBACK
 10
0.0
 20
0.0
 30
0.0
  9
$PUCSBASE
  2

  9
$PUCSNAME
  2

  9
$PUCSORG
 10
0.0
 20
0.0
 30
0.0
  9
$PUCSXDIR
 10
1.0
 20
0.0
 30
0.0
  9
$PUCSYDIR
 10
0.0
 20
1.0
 30
0.0
  9
$PUCSORTHOREF
  2

  9
$PUCSORTHOVIEW
 70
     0
  9
$PUCSORGTOP
 10
0.0
 20
0.0
 30
0.0
  9
$PUCSORGBOTTOM
 10
0.0
 20
0.0
 30
0.0
  9
$PUCSORGLEFT
 10
0.0
 20
0.0
 30
0.0
  9
$PUCSORGRIGHT
 10
0.0
 20
0.0
 30
0.0
  9
$PUCSORGFRONT
 10
0.0
 20
0.0
 30
0.0
  9
$PUCSORGBACK
 10
0.0
 20
0.0
 30
0.0
  9
$USERI1
 70
     0
  9
$USERI2
 70
     0
  9
$USERI3
 70
     0
  9
$USERI4
 70
     0
  9
$USERI5
 70
     0
  9
$USERR1
 40
0.0
  9
$USERR2
 40
0.0
  9
$USERR3
 40
0.0
  9
$USERR4
 40
0.0
  9
$USERR5
 40
0.0
  9
$WORLDVIEW
 70
     1
  9
$SHADEDGE
 70
     3
  9
$SHADEDIF
 70
    70
  9
$TILEMODE
 70
     1
  9
$MAXACTVP
 70
    64
  9
$PINSBASE
 10
0.0
 20
0.0
 30
0.0
  9
$PLIMCHECK
 70
     0
  9
$PEXTMIN
 10
1.0000000000E+20
 20
1.0000000000E+20
 30
1.0000000000E+20
  9
$PEXTMAX
 10
-1.0000000000E+20
 20
-1.0000000000E+20
 30
-1.0000000000E+20
  9
$PLIMMIN
 10
0.0
 20
0.0
  9
$PLIMMAX
 10
420.0
 20
297.0
  9
$UNITMODE
 70
     0
  9
$VISRETAIN
 70
     1
  9
$PLINEGEN
 70
     0
  9
$PSLTSCALE
 70
     1
  9
$TREEDEPTH
 70
  3020
  9
$CMLSTYLE
  2
Standard
  9
$CMLJUST
 70
     0
  9
$CMLSCALE
 40
20.0
  9
$PROXYGRAPHICS
 70
     1
  9
$MEASUREMENT
 70
     1
  9
$CELWEIGHT
370
    -1
  9
$ENDCAPS
280
     0
  9
$JOINSTYLE
280
     0
  9
$LWDISPLAY
290
     1
  9
$INSUNITS
 70
     4
  9
$HYPERLINKBASE
  1

  9
$STYLESHEET
  1

  9
$XEDIT
290
     1
  9
$CEPSNTYPE
380
     0
  9
$PSTYLEMODE
290
     1
  9
$FINGERPRINTGUID
  2
{d9070a6d-769b-4dda-bd8a-b4943cc44660}
  9
$VERSIONGUID
  2
{FAEB1C32-E019-11D5-929B-00C0DF256EC4}
  9
$EXTNAMES
290
     1
  9
$PSVPSCALE
 40
0.0
  9
$OLESTARTUP
290
     0
  0
ENDSEC
  0
SECTION
  2
CLASSES
  0
CLASS
  1
ACDBDICTIONARYWDFLT
  2
AcDbDictionaryWithDefault
  3
ObjectDBX Classes
 90
        0
280
     0
281
     0
  0
CLASS
  1
VISUALSTYLE
  2
AcDbVisualStyle
  3
ObjectDBX Classes
 90
     4095
280
     0
281
     0
  0
CLASS
  1
MATERIAL
  2
AcDbMaterial
  3
ObjectDBX Classes
 90
     1153
280
     0
281
     0
  0
CLASS
  1
SCALE
  2
AcDbScale
  3
ObjectDBX Classes
 90
     1153
280
     0
281
     0
  0
CLASS
  1
TABLESTYLE
  2
AcDbTableStyle
  3
ObjectDBX Classes
 90
     4095
280
     0
281
     0
  0
CLASS
  1
MLEADERSTYLE
  2
AcDbMLeaderStyle
  3
ACDB_MLEADERSTYLE_CLASS
 90
     4095
280
     0
281
     0
  0
CLASS
  1
SUN
  2
AcDbSun
  3
SCENEOE
 90
     1153
280
     0
281
     0
  0
CLASS
  1
ACDBPLACEHOLDER
  2
AcDbPlaceHolder
  3
ObjectDBX Classes
 90
        0
280
     0
281
     0
  0
CLASS
  1
LAYOUT
  2
AcDbLayout
  3
ObjectDBX Classes
 90
        0
280
     0
281
     0
  0
ENDSEC
  0
SECTION
  2
TABLES
  0
TABLE
  2
VPORT
  5
8
330
0
100
AcDbSymbolTable
 70
     1
  0
VPORT
  5
29
330
8
100
AcDbSymbolTableRecord
100
AcDbViewportTableRecord
  2
*Active
 70
     0
 10
0.0
 20
0.0
 11
1.0
 21
1.0
 12
139.7
 22
107.95
 13
0.0
 23
0.0
 14
10.0
 24
10.0
 15
10.0
 25
10.0
 16
0.0
 26
0.0
 36
1.0
 17
0.0
 27
0.0
 37
0.0
 40
215.9
 41
1.2941176471
 42
50.0
 43
0.0
 44
0.0
 50
0.0
 51
0.0
 71
     0
 72
  2000
 73
     1
 74
     3
 75
     0
 76
     0
 77
     0
 78
     0
281
     0
 65
     1
110
0.0
120
0.0
130
0.0
111
1.0
121
0.0
131
0.0
112
0.0
122
1.0
132
0.0
 79
     0
146
0.0
  0
ENDTAB
  0
TABLE
  2
LTYPE
  5
5
330
0
100
AcDbSymbolTable
 70
     6
  0
LTYPE
  5
14
330
5
100
AcDbSymbolTableRecord
100
AcDbLinetypeTableRecord
  2
ByBlock
 70
     0
  3

 72
    65
 73
     0
 40
0.0
  0
LTYPE
  5
15
330
5
100
AcDbSymbolTableRecord
100
AcDbLinetypeTableRecord
  2
ByLayer
 70
     0
  3

 72
    65
 73
     0
 40
0.0
  0
LTYPE
  5
16
330
5
100
AcDbSymbolTableRecord
100
AcDbLinetypeTableRecord
  2
Continuous
 70
     0
  3
Solid line
 72
    65
 73
     0
 40
0.0
  0
LTYPE
  5
6E
330
5
100
AcDbSymbolTableRecord
100
AcDbLinetypeTableRecord
  2
HIDDEN
 70
     0
  3
Hidden __ __ __ __ __ __ __ __ __ __ __ __ __ __
 72
    65
 73
     2
 40
1.905
 49
1.27
 74
     0
 49
-0.635
 74
     0
  0
LTYPE
  5
6F
330
5
100
AcDbSymbolTableRecord
100
AcDbLinetypeTableRecord
  2
PHANTOM
 70
     0
  3
Phantom ______  __  __  ______  __  __  ______
 72
    65
 73
     6
 40
12.7
 49
6.35
 74
     0
 49
-1.27
 74
     0
 49
1.27
 74
     0
 49
-1.27
 74
     0
 49
1.27
 74
     0
 49
-1.27
 74
     0
  0
LTYPE
  5
70
330
5
100
AcDbSymbolTableRecord
100
AcDbLinetypeTableRecord
  2
CENTER
 70
     0
  3
Center ____ _ ____ _ ____ _ ____ _ ____ _ ____
 72
    65
 73
     4
 40
10.16
 49
6.35
 74
     0
 49
-1.27
 74
     0
 49
1.27
 74
     0
 49
-1.27
 74
     0
  0
LTYPE
  5
71
330
5
100
AcDbSymbolTableRecord
100
AcDbLinetypeTableRecord
  2
CENTERX2
 70
     0
  3
Center (2x) ________  __  ________  __  _____
 72
    65
 73
     4
 40
20.32
 49
12.7
 74
     0
 49
-2.54
 74
     0
 49
2.54
 74
     0
 49
-2.54
 74
     0
  0
LTYPE
  5
72
330
5
100
AcDbSymbolTableRecord
100
AcDbLinetypeTableRecord
  2
DOT2
 70
     0
  3
Dot (.5x) ........................................
 72
    65
 73
     2
 40
0.635
 49
0.0
 74
     0
 49
-0.635
 74
     0
  0
ENDTAB
  0
TABLE
  2
LAYER
  5
2
330
0
100
AcDbSymbolTable
 70
    17
  0
LAYER
  5
10
330
2
100
AcDbSymbolTableRecord
100
AcDbLayerTableRecord
  2
0
 70
     0
 62
     7
  6
Continuous
370
    -3
390
F
  0
LAYER
  5
73
330
2
100
AcDbSymbolTableRecord
100
AcDbLayerTableRecord
  2
FORMAT
 70
     0
 62
     7
  6
Continuous
370
    -3
390
F
  0
LAYER
  5
74
330
2
100
AcDbSymbolTableRecord
100
AcDbLayerTableRecord
  2
YARDIMCI_GEOMETRI
 70
     0
 62
    -6
  6
Continuous
290
     0
370
    -3
390
F
  0
LAYER
  5
75
330
2
100
AcDbSymbolTableRecord
100
AcDbLayerTableRecord
  2
SAYFA_CERCEVESI
 70
     0
 62
     7
  6
Continuous
370
    25
390
F
  0
LAYER
  5
76
330
2
100
AcDbSymbolTableRecord
100
AcDbLayerTableRecord
  2
ANTET
 70
     0
 62
     7
  6
Continuous
370
    -3
390
F
  0
LAYER
  5
77
330
2
100
AcDbSymbolTableRecord
100
AcDbLayerTableRecord
  2
OLCU
 70
     0
 62
   150
  6
Continuous
370
    -3
390
F
  0
LAYER
  5
78
330
2
100
AcDbSymbolTableRecord
100
AcDbLayerTableRecord
  2
METIN
 70
     0
 62
    96
  6
Continuous
370
    -3
390
F
  0
LAYER
  5
79
330
2
100
AcDbSymbolTableRecord
100
AcDbLayerTableRecord
  2
BALON
 70
     0
 62
     5
  6
Continuous
370
    -3
390
F
  0
LAYER
  5
7A
330
2
100
AcDbSymbolTableRecord
100
AcDbLayerTableRecord
  2
VURGU
 70
     0
 62
     7
  6
Continuous
370
    -3
390
F
  0
LAYER
  5
7B
330
2
100
AcDbSymbolTableRecord
100
AcDbLayerTableRecord
  2
SILIK
 70
     0
 62
     7
  6
Continuous
370
    -3
390
F
  0
LAYER
  5
7C
330
2
100
AcDbSymbolTableRecord
100
AcDbLayerTableRecord
  2
MODEL
 70
     0
 62
     7
  6
Continuous
370
    -3
390
F
  0
LAYER
  5
7D
330
2
100
AcDbSymbolTableRecord
100
AcDbLayerTableRecord
  2
DETAYLANDıRMA
 70
     0
 62
   190
  6
Continuous
370
    -3
390
F
  0
LAYER
  5
7E
330
2
100
AcDbSymbolTableRecord
100
AcDbLayerTableRecord
  2
TOLERANS
 70
     0
 62
   230
  6
Continuous
370
    -3
390
F
  0
LAYER
  5
7F
330
2
100
AcDbSymbolTableRecord
100
AcDbLayerTableRecord
  2
MERKEZ_CIZGILERI
 70
     0
 62
    30
  6
Continuous
370
    -3
390
F
  0
LAYER
  5
80
330
2
100
AcDbSymbolTableRecord
100
AcDbLayerTableRecord
  2
KESIT-DETAY_CIZGILERI
 70
     0
 62
     7
  6
Continuous
370
    -3
390
F
  0
LAYER
  5
81
330
2
100
AcDbSymbolTableRecord
100
AcDbLayerTableRecord
  2
\U+041E\U+0421\U+0415\U+0412\U+042B\U+0415
 70
     0
 62
     7
  6
Continuous
370
    -3
390
F
  0
LAYER
  5
82
330
2
100
AcDbSymbolTableRecord
100
AcDbLayerTableRecord
  2
\U+0412\U+041E\U+0414\U+042F\U+041D\U+042B\U+0415_\U+0417\U+041D\U+0410\U+041A\U+0418
 70
     0
 62
    11
  6
Continuous
370
    -3
390
F
  0
ENDTAB
  0
TABLE
  2
STYLE
  5
3
330
0
100
AcDbSymbolTable
 70
     1
  0
STYLE
  5
11
330
3
100
AcDbSymbolTableRecord
100
AcDbTextStyleTableRecord
  2
Standard
 70
     0
 40
0.0
 41
1.0
 50
0.0
 71
     0
 42
3.5
  3
txt
  4

  0
ENDTAB
  0
TABLE
  2
VIEW
  5
6
330
0
100
AcDbSymbolTable
 70
     0
  0
ENDTAB
  0
TABLE
  2
UCS
  5
7
330
0
100
AcDbSymbolTable
 70
     0
  0
ENDTAB
  0
TABLE
  2
APPID
  5
9
330
0
100
AcDbSymbolTable
 70
     1
  0
APPID
  5
12
330
9
100
AcDbSymbolTableRecord
100
AcDbRegAppTableRecord
  2
ACAD
 70
     0
  0
ENDTAB
  0
TABLE
  2
DIMSTYLE
  5
A
330
0
100
AcDbSymbolTable
 70
     1
100
AcDbDimStyleTable
  0
DIMSTYLE
105
27
330
A
100
AcDbSymbolTableRecord
100
AcDbDimStyleTableRecord
  2
ISO-25
 70
     0
 41
2.5
 42
0.625
 43
3.75
 44
1.25
 73
     0
 74
     0
 77
     1
 78
     8
140
2.5
141
2.5
143
0.0393700787
147
0.625
171
     3
172
     1
178
     0
271
     2
272
     2
274
     3
278
    44
283
     0
284
     8
340
11
  0
ENDTAB
  0
TABLE
  2
BLOCK_RECORD
  5
1
330
0
100
AcDbSymbolTable
 70
     1
  0
BLOCK_RECORD
  5
1F
330
1
100
AcDbSymbolTableRecord
100
AcDbBlockTableRecord
  2
*Model_Space
340
22
  0
BLOCK_RECORD
  5
1B
330
1
100
AcDbSymbolTableRecord
100
AcDbBlockTableRecord
  2
*Paper_Space
340
1E
  0
BLOCK_RECORD
  5
23
330
1
100
AcDbSymbolTableRecord
100
AcDbBlockTableRecord
  2
*Paper_Space0
340
26
  0
ENDTAB
  0
ENDSEC
  0
SECTION
  2
BLOCKS
  0
BLOCK
  5
20
330
1F
100
AcDbEntity
  8
0
100
AcDbBlockBegin
  2
*Model_Space
 70
     0
 10
0.0
 20
0.0
 30
0.0
  3
*Model_Space
  1

  0
ENDBLK
  5
21
330
1F
100
AcDbEntity
  8
0
100
AcDbBlockEnd
  0
BLOCK
  5
1C
330
1B
100
AcDbEntity
 67
     1
  8
0
100
AcDbBlockBegin
  2
*Paper_Space
 70
     0
 10
0.0
 20
0.0
 30
0.0
  3
*Paper_Space
  1

  0
ENDBLK
  5
1D
330
1B
100
AcDbEntity
 67
     1
  8
0
100
AcDbBlockEnd
  0
BLOCK
  5
24
330
23
100
AcDbEntity
  8
0
100
AcDbBlockBegin
  2
*Paper_Space0
 70
     0
 10
0.0
 20
0.0
 30
0.0
  3
*Paper_Space0
  1

  0
ENDBLK
  5
25
330
23
100
AcDbEntity
  8
0
100
AcDbBlockEnd
  0
ENDSEC
  0
SECTION
  2
ENTITIES
  0
CIRCLE
  5
83
330
1F
100
AcDbEntity
  8
0
  6
Continuous
 62
     7
370
    25
100
AcDbCircle
 10
131.1300309089
 20
103.6795855151
 30
0.0
 40
450.0
  0
CIRCLE
  5
84
330
1F
100
AcDbEntity
  8
0
  6
Continuous
 62
     7
370
    25
100
AcDbCircle
 10
131.1300309089
 20
103.6795855151
 30
0.0
 40
396.7
  0
CIRCLE
  5
85
330
1F
100
AcDbEntity
  8
0
  6
Continuous
 62
     7
370
    25
100
AcDbCircle
 10
131.1300309089
 20
103.6795855151
 30
0.0
 40
473.5
  0
CIRCLE
  5
86
330
1F
100
AcDbEntity
  8
0
  6
Continuous
 62
     7
370
    25
100
AcDbCircle
 10
131.1300309089
 20
103.6795855151
 30
0.0
 40
502.5
  0
LINE
  5
87
330
1F
100
AcDbEntity
  8
0
  6
Continuous
 62
     7
370
    25
100
AcDbLine
 10
633.6300309089
 20
956.3467321586
 30
0.0
 11
633.6300309089
 21
1016.3467321586
 31
0.0
  0
LINE
  5
88
330
1F
100
AcDbEntity
  8
0
  6
Continuous
 62
     7
370
    25
100
AcDbLine
 10
-371.3699690911
 20
1016.3467321586
 30
0.0
 11
-371.3699690911
 21
956.3467321586
 31
0.0
  0
LINE
  5
89
330
1F
100
AcDbEntity
  8
0
  6
Continuous
 62
     7
370
    25
100
AcDbLine
 10
604.6300309089
 20
1016.3467321586
 30
0.0
 11
581.1300309089
 21
1061.3467321586
 31
0.0
  0
LINE
  5
8A
330
1F
100
AcDbEntity
  8
0
  6
Continuous
 62
     7
370
    25
100
AcDbLine
 10
-318.8699690911
 20
1061.3467321586
 30
0.0
 11
-342.3699690911
 21
1016.3467321586
 31
0.0
  0
LINE
  5
8B
330
1F
100
AcDbEntity
  8
0
  6
Continuous
 62
     7
370
    25
100
AcDbLine
 10
581.1300309089
 20
1061.3467321586
 30
0.0
 11
581.1300309089
 21
1106.3467321586
 31
0.0
  0
LINE
  5
8C
330
1F
100
AcDbEntity
  8
0
  6
Continuous
 62
     7
370
    25
100
AcDbLine
 10
-318.8699690911
 20
1106.3467321586
 30
0.0
 11
-318.8699690911
 21
1061.3467321586
 31
0.0
  0
LINE
  5
8D
330
1F
100
AcDbEntity
  8
0
  6
Continuous
 62
     7
370
    25
100
AcDbLine
 10
633.6300309089
 20
956.3467321586
 30
0.0
 11
-371.3699690911
 21
956.3467321586
 31
0.0
  0
LINE
  5
8E
330
1F
100
AcDbEntity
  8
0
  6
Continuous
 62
     7
370
    25
100
AcDbLine
 10
633.6300309089
 20
1016.3467321586
 30
0.0
 11
-371.3699690911
 21
1016.3467321586
 31
0.0
  0
LINE
  5
8F
330
1F
100
AcDbEntity
  8
0
  6
Continuous
 62
     7
370
    25
100
AcDbLine
 10
581.1300309089
 20
1061.3467321586
 30
0.0
 11
-318.8699690911
 21
1061.3467321586
 31
0.0
  0
LINE
  5
90
330
1F
100
AcDbEntity
  8
0
  6
Continuous
 62
     7
370
    25
100
AcDbLine
 10
581.1300309089
 20
1106.3467321586
 30
0.0
 11
-318.8699690911
 21
1106.3467321586
 31
0.0
  0
LINE
  5
91
330
1F
100
AcDbEntity
  8
0
  6
Continuous
 62
     7
370
    25
100
AcDbLine
 10
-965.2883010931
 20
606.1795855151
 30
0.0
 11
-1025.2883010931
 21
606.1795855151
 31
0.0
  0
LINE
  5
92
330
1F
100
AcDbEntity
  8
0
  6
Continuous
 62
     7
370
    25
100
AcDbLine
 10
-1025.2883010931
 20
-398.8204144849
 30
0.0
 11
-965.2883010931
 21
-398.8204144849
 31
0.0
  0
LINE
  5
93
330
1F
100
AcDbEntity
  8
0
  6
Continuous
 62
     7
370
    25
100
AcDbLine
 10
-1025.2883010931
 20
577.1795855151
 30
0.0
 11
-1070.2883010931
 21
553.6795855151
 31
0.0
  0
LINE
  5
94
330
1F
100
AcDbEntity
  8
0
  6
Continuous
 62
     7
370
    25
100
AcDbLine
 10
-1070.2883010931
 20
-346.3204144849
 30
0.0
 11
-1025.2883010931
 21
-369.8204144849
 31
0.0
  0
LINE
  5
95
330
1F
100
AcDbEntity
  8
0
  6
Continuous
 62
     7
370
    25
100
AcDbLine
 10
-1070.2883010931
 20
553.6795855151
 30
0.0
 11
-1115.2883010931
 21
553.6795855151
 31
0.0
  0
LINE
  5
96
330
1F
100
AcDbEntity
  8
0
  6
Continuous
 62
     7
370
    25
100
AcDbLine
 10
-1115.2883010931
 20
-346.3204144849
 30
0.0
 11
-1070.2883010931
 21
-346.3204144849
 31
0.0
  0
LINE
  5
97
330
1F
100
AcDbEntity
  8
0
  6
Continuous
 62
     7
370
    25
100
AcDbLine
 10
-965.2883010931
 20
606.1795855151
 30
0.0
 11
-965.2883010931
 21
-398.8204144849
 31
0.0
  0
LINE
  5
98
330
1F
100
AcDbEntity
  8
0
  6
Continuous
 62
     7
370
    25
100
AcDbLine
 10
-1025.2883010931
 20
606.1795855151
 30
0.0
 11
-1025.2883010931
 21
-398.8204144849
 31
0.0
  0
LINE
  5
99
330
1F
100
AcDbEntity
  8
0
  6
Continuous
 62
     7
370
    25
100
AcDbLine
 10
-1070.2883010931
 20
553.6795855151
 30
0.0
 11
-1070.2883010931
 21
-346.3204144849
 31
0.0
  0
LINE
  5
9A
330
1F
100
AcDbEntity
  8
0
  6
Continuous
 62
     7
370
    25
100
AcDbLine
 10
-1115.2883010931
 20
553.6795855151
 30
0.0
 11
-1115.2883010931
 21
-346.3204144849
 31
0.0
  0
LINE
  5
9B
330
1F
100
AcDbEntity
  8
0
  6
Continuous
 62
     7
370
    25
100
AcDbLine
 10
-371.3699690911
 20
-940.117572374
 30
0.0
 11
-371.3699690911
 21
-1000.117572374
 31
0.0
  0
LINE
  5
9C
330
1F
100
AcDbEntity
  8
0
  6
Continuous
 62
     7
370
    25
100
AcDbLine
 10
633.6300309089
 20
-1000.117572374
 30
0.0
 11
633.6300309089
 21
-940.117572374
 31
0.0
  0
LINE
  5
9D
330
1F
100
AcDbEntity
  8
0
  6
Continuous
 62
     7
370
    25
100
AcDbLine
 10
-342.3699690911
 20
-1000.117572374
 30
0.0
 11
-318.8699690911
 21
-1045.117572374
 31
0.0
  0
LINE
  5
9E
330
1F
100
AcDbEntity
  8
0
  6
Continuous
 62
     7
370
    25
100
AcDbLine
 10
581.1300309089
 20
-1045.117572374
 30
0.0
 11
604.6300309089
 21
-1000.117572374
 31
0.0
  0
LINE
  5
9F
330
1F
100
AcDbEntity
  8
0
  6
Continuous
 62
     7
370
    25
100
AcDbLine
 10
-318.8699690911
 20
-1045.117572374
 30
0.0
 11
-318.8699690911
 21
-1090.117572374
 31
0.0
  0
LINE
  5
A0
330
1F
100
AcDbEntity
  8
0
  6
Continuous
 62
     7
370
    25
100
AcDbLine
 10
581.1300309089
 20
-1090.117572374
 30
0.0
 11
581.1300309089
 21
-1045.117572374
 31
0.0
  0
LINE
  5
A1
330
1F
100
AcDbEntity
  8
0
  6
Continuous
 62
     7
370
    25
100
AcDbLine
 10
-371.3699690911
 20
-940.117572374
 30
0.0
 11
633.6300309089
 21
-940.117572374
 31
0.0
  0
LINE
  5
A2
330
1F
100
AcDbEntity
  8
0
  6
Continuous
 62
     7
370
    25
100
AcDbLine
 10
-371.3699690911
 20
-1000.117572374
 30
0.0
 11
633.6300309089
 21
-1000.117572374
 31
0.0
  0
LINE
  5
A3
330
1F
100
AcDbEntity
  8
0
  6
Continuous
 62
     7
370
    25
100
AcDbLine
 10
-318.8699690911
 20
-1045.117572374
 30
0.0
 11
581.1300309089
 21
-1045.117572374
 31
0.0
  0
LINE
  5
A4
330
1F
100
AcDbEntity
  8
0
  6
Continuous
 62
     7
370
    25
100
AcDbLine
 10
-318.8699690911
 20
-1090.117572374
 30
0.0
 11
581.1300309089
 21
-1090.117572374
 31
0.0
  0
LINE
  5
A5
330
1F
100
AcDbEntity
  8
0
  6
Continuous
 62
     7
370
    25
100
AcDbLine
 10
1099.3974109126
 20
-398.8204144849
 30
0.0
 11
1159.3974109126
 21
-398.8204144849
 31
0.0
  0
LINE
  5
A6
330
1F
100
AcDbEntity
  8
0
  6
Continuous
 62
     7
370
    25
100
AcDbLine
 10
1159.3974109126
 20
606.1795855151
 30
0.0
 11
1099.3974109126
 21
606.1795855151
 31
0.0
  0
LINE
  5
A7
330
1F
100
AcDbEntity
  8
0
  6
Continuous
 62
     7
370
    25
100
AcDbLine
 10
1159.3974109126
 20
-369.8204144849
 30
0.0
 11
1204.3974109126
 21
-346.3204144849
 31
0.0
  0
LINE
  5
A8
330
1F
100
AcDbEntity
  8
0
  6
Continuous
 62
     7
370
    25
100
AcDbLine
 10
1204.3974109126
 20
553.6795855151
 30
0.0
 11
1159.3974109126
 21
577.1795855151
 31
0.0
  0
LINE
  5
A9
330
1F
100
AcDbEntity
  8
0
  6
Continuous
 62
     7
370
    25
100
AcDbLine
 10
1204.3974109126
 20
-346.3204144849
 30
0.0
 11
1249.3974109126
 21
-346.3204144849
 31
0.0
  0
LINE
  5
AA
330
1F
100
AcDbEntity
  8
0
  6
Continuous
 62
     7
370
    25
100
AcDbLine
 10
1249.3974109126
 20
553.6795855151
 30
0.0
 11
1204.3974109126
 21
553.6795855151
 31
0.0
  0
LINE
  5
AB
330
1F
100
AcDbEntity
  8
0
  6
Continuous
 62
     7
370
    25
100
AcDbLine
 10
1099.3974109126
 20
103.6795855151
 30
0.0
 11
1099.3974109126
 21
606.1795855151
 31
0.0
  0
LINE
  5
AC
330
1F
100
AcDbEntity
  8
0
  6
Continuous
 62
     7
370
    25
100
AcDbLine
 10
1099.3974109126
 20
-398.8204144849
 30
0.0
 11
1099.3974109126
 21
103.6795855151
 31
0.0
  0
LINE
  5
AD
330
1F
100
AcDbEntity
  8
0
  6
Continuous
 62
     7
370
    25
100
AcDbLine
 10
1159.3974109126
 20
103.6795855151
 30
0.0
 11
1159.3974109126
 21
606.1795855151
 31
0.0
  0
LINE
  5
AE
330
1F
100
AcDbEntity
  8
0
  6
Continuous
 62
     7
370
    25
100
AcDbLine
 10
1159.3974109126
 20
-398.8204144849
 30
0.0
 11
1159.3974109126
 21
103.6795855151
 31
0.0
  0
LINE
  5
AF
330
1F
100
AcDbEntity
  8
0
  6
Continuous
 62
     7
370
    25
100
AcDbLine
 10
1204.3974109126
 20
103.6795855151
 30
0.0
 11
1204.3974109126
 21
553.6795855151
 31
0.0
  0
LINE
  5
B0
330
1F
100
AcDbEntity
  8
0
  6
Continuous
 62
     7
370
    25
100
AcDbLine
 10
1204.3974109126
 20
-346.3204144849
 30
0.0
 11
1204.3974109126
 21
103.6795855151
 31
0.0
  0
LINE
  5
B1
330
1F
100
AcDbEntity
  8
0
  6
Continuous
 62
     7
370
    25
100
AcDbLine
 10
1249.3974109126
 20
103.6795855151
 30
0.0
 11
1249.3974109126
 21
553.6795855151
 31
0.0
  0
LINE
  5
B2
330
1F
100
AcDbEntity
  8
0
  6
Continuous
 62
     7
370
    25
100
AcDbLine
 10
1249.3974109126
 20
-346.3204144849
 30
0.0
 11
1249.3974109126
 21
103.6795855151
 31
0.0
  0
LINE
  5
B3
330
1F
100
AcDbEntity
  8
0
  6
Continuous
 62
     7
370
    25
100
AcDbLine
 10
1620.1715506406
 20
-605.2050876707
 30
0.0
 11
1577.7451437695
 21
-580.712844316
 31
0.0
  0
LINE
  5
B4
330
1F
100
AcDbEntity
  8
0
  6
Continuous
 62
     7
370
    25
100
AcDbLine
 10
1075.2859806198
 20
-1451.0919510086
 30
0.0
 11
1117.712387491
 21
-1475.5841943633
 31
0.0
  0
LINE
  5
B5
330
1F
100
AcDbEntity
  8
0
  6
Continuous
 62
     7
370
    25
100
AcDbLine
 10
1519.6774718844
 20
-607.811227075
 30
0.0
 11
1487.857666731
 21
-589.442044559
 31
0.0
  0
LINE
  5
B6
330
1F
100
AcDbEntity
  8
0
  6
Continuous
 62
     7
370
    25
100
AcDbLine
 10
1037.8942370447
 20
-1368.8860207016
 30
0.0
 11
1069.7140421981
 21
-1387.2552032176
 31
0.0
  0
LWPOLYLINE
  5
B7
330
1F
100
AcDbEntity
  8
0
  6
Continuous
 62
     7
370
    25
100
AcDbPolyline
 90
      121
 70
   128
 43
0.0
 10
1620.1715506406
 20
-605.2050876707
 10
1625.1171342055
 20
-608.1747784691
 10
1631.5274729697
 20
-612.3820123584
 10
1637.7548116259
 20
-616.8875352092
 10
1643.7948102407
 20
-621.6882070492
 10
1649.6432594407
 20
-626.7806822122
 10
1655.2960833465
 20
-632.1614116693
 10
1660.7493424134
 20
-637.8266455028
 10
1665.9992361763
 20
-643.7724355191
 10
1671.0421058989
 20
-649.9946380004
 10
1675.8744371234
 20
-656.4889165926
 10
1680.4928621194
 20
-663.2507453273
 10
1684.8941622315
 20
-670.2754117761
 10
1689.0752701221
 20
-677.5580203348
 10
1693.033271909
 20
-685.093495635
 10
1696.7654091966
 20
-692.8765860815
 10
1700.2690809975
 20
-700.9018675119
 10
1703.541845546
 20
-709.163746977
 10
1706.5814219992
 20
-717.6564666388
 10
1709.3856920269
 20
-726.3741077828
 10
1711.9527012877
 20
-735.3105949431
 10
1714.280660791
 20
-744.4597001365
 10
1716.367948144
 20
-753.8150472027
 10
1718.2131086823
 20
-763.3701162484
 10
1719.8148564835
 20
-773.1182481904
 10
1721.1720752634
 20
-783.052649397
 10
1722.2838191542
 20
-793.1663964227
 10
1723.1493133635
 20
-803.4524408324
 10
1723.7679547144
 20
-813.9036141148
 10
1724.1393120656
 20
-824.512632677
 10
1724.2631266121
 20
-835.2721029216
 10
1724.1393120656
 20
-846.1745263987
 10
1723.7679547144
 20
-857.2123050322
 10
1723.1493133635
 20
-868.3777464146
 10
1722.2838191542
 20
-879.6630691682
 10
1721.1720752634
 20
-891.0604083681
 10
1719.8148564835
 20
-902.5618210233
 10
1718.2131086823
 20
-914.1592916122
 10
1716.367948144
 20
-925.844737669
 10
1714.280660791
 20
-937.6100154163
 10
1711.9527012877
 20
-949.4469254407
 10
1709.3856920269
 20
-961.347218407
 10
1706.5814219992
 20
-973.3026008077
 10
1703.541845546
 20
-985.3047407423
 10
1700.2690809975
 20
-997.3452737243
 10
1696.7654091966
 20
-1009.4158085104
 10
1693.033271909
 20
-1021.5079329487
 10
1689.075270122
 20
-1033.6132198409
 10
1684.8941622315
 20
-1045.7232328159
 10
1680.4928621194
 20
-1057.8295322086
 10
1675.8744371234
 20
-1069.9236809421
 10
1671.0421058989
 20
-1081.9972504074
 10
1665.9992361763
 20
-1094.0418263377
 10
1660.7493424134
 20
-1106.0490146722
 10
1655.2960833465
 20
-1118.0104474059
 10
1649.6432594406
 20
-1129.917788422
 10
1643.7948102407
 20
-1141.7627393008
 10
1637.7548116259
 20
-1153.5370451034
 10
1631.5274729697
 20
-1165.2325001246
 10
1625.1171342055
 20
-1176.8409536117
 10
1618.5282628028
 20
-1188.3543154446
 10
1611.7654506531
 20
-1199.7645617743
 10
1604.8334108702
 20
-1211.0637406144
 10
1597.7369745054
 20
-1222.2439773835
 10
1590.4810871806
 20
-1233.2974803929
 10
1583.0708056416
 20
-1244.2165462764
 10
1575.5112942341
 20
-1254.9935653596
 10
1567.8078213047
 20
-1265.6210269625
 10
1559.9657555288
 20
-1276.0915246343
 10
1551.9905621697
 20
-1286.397761315
 10
1543.8877992692
 20
-1296.5325544206
 10
1535.6631137747
 20
-1306.4888408489
 10
1527.3222376031
 20
-1316.2596819021
 10
1518.8709836468
 20
-1325.838268122
 10
1510.315241722
 20
-1335.2179240363
 10
1501.6609744644
 20
-1344.3921128101
 10
1492.9142131737
 20
-1353.3544408021
 10
1484.0810536099
 20
-1362.0986620202
 10
1475.1676517457
 20
-1370.6186824745
 10
1466.1802194758
 20
-1378.908564424
 10
1457.1250202879
 20
-1386.9625305153
 10
1448.0083648975
 20
-1394.7749678084
 10
1438.83660685
 20
-1402.3404316887
 10
1429.6161380928
 20
-1409.6536496615
 10
1420.3533845205
 20
-1416.7095250261
 10
1411.0548014968
 20
-1423.5031404283
 10
1401.7268693552
 20
-1430.029761287
 10
1392.3760888835
 20
-1436.2848390941
 10
1383.0089767926
 20
-1442.264014584
 10
1373.6320611752
 20
-1447.9631207721
 10
1364.2518769564
 20
-1453.3781858588
 10
1354.8749613391
 20
-1458.5054359969
 10
1345.5078492482
 20
-1463.3412979226
 10
1336.1570687764
 20
-1467.882401445
 10
1326.8291366349
 20
-1472.1255817953
 10
1317.5305536111
 20
-1476.0678818319
 10
1308.2678000388
 20
-1479.706554102
 10
1299.0473312817
 20
-1483.0390627557
 10
1289.8755732342
 20
-1486.0630853134
 10
1280.7589178438
 20
-1488.7765142847
 10
1271.7037186559
 20
-1491.1774586367
 10
1262.7162863859
 20
-1493.2642451125
 10
1253.8028845218
 20
-1495.0354193964
 10
1244.969724958
 20
-1496.4897471284
 10
1236.2229636673
 20
-1497.6262147637
 10
1227.5686964097
 20
-1498.4440302797
 10
1219.0129544849
 20
-1498.9426237274
 10
1210.5617005286
 20
-1499.1216476288
 10
1202.220824357
 20
-1498.9809772194
 10
1193.9961388624
 20
-1498.5207105347
 10
1185.893375962
 20
-1497.7411683418
 10
1177.9181826028
 20
-1496.6428939166
 10
1170.0761168269
 20
-1495.2266526644
 10
1162.3726438975
 20
-1493.4934315865
 10
1154.8131324901
 20
-1491.4444385931
 10
1147.4028509511
 20
-1489.0811016607
 10
1140.1469636263
 20
-1486.4050678371
 10
1133.0505272615
 20
-1483.418202094
 10
1126.1184874786
 20
-1480.1225860266
 10
1119.3556753289
 20
-1476.5205164032
 10
1117.712387491
 20
-1475.5841943633
  0
LWPOLYLINE
  5
B8
330
1F
100
AcDbEntity
  8
0
  6
Continuous
 62
     7
370
    25
100
AcDbPolyline
 90
      162
 70
   128
 43
0.0
 10
1411.4161297174
 20
-568.4635759232
 10
1414.6986134167
 20
-567.5205243947
 10
1423.7538126046
 20
-565.1195800426
 10
1432.7412448745
 20
-563.0327935669
 10
1441.6546467387
 20
-561.261619283
 10
1450.4878063025
 20
-559.807291551
 10
1459.2345675932
 20
-558.6708239156
 10
1467.8888348508
 20
-557.8530083997
 10
1476.4445767756
 20
-557.354414952
 10
1484.8958307319
 20
-557.1753910505
 10
1493.2367069035
 20
-557.3160614599
 10
1501.4613923981
 20
-557.7763281447
 10
1509.5641552985
 20
-558.5558703375
 10
1517.5393486577
 20
-559.6541447627
 10
1525.3814144335
 20
-561.070386015
 10
1533.084887363
 20
-562.8036070928
 10
1540.6443987704
 20
-564.8526000862
 10
1548.0546803094
 20
-567.2159370187
 10
1555.3105676342
 20
-569.8919708422
 10
1562.407003999
 20
-572.8788365853
 10
1569.3390437819
 20
-576.1744526528
 10
1576.1018559316
 20
-579.7765222761
 10
1582.6907273343
 20
-583.6825351144
 10
1589.1010660985
 20
-587.8897690038
 10
1595.3284047547
 20
-592.3952918545
 10
1601.3684033695
 20
-597.1959636945
 10
1607.2168525695
 20
-602.2884388575
 10
1612.8696764753
 20
-607.6691683147
 10
1618.3229355422
 20
-613.3344021482
 10
1623.5728293051
 20
-619.2801921644
 10
1628.6156990277
 20
-625.5023946457
 10
1633.4480302522
 20
-631.9966732379
 10
1638.0664552482
 20
-638.7585019726
 10
1642.4677553603
 20
-645.7831684215
 10
1646.6488632509
 20
-653.0657769802
 10
1650.6068650378
 20
-660.6012522804
 10
1654.3390023254
 20
-668.3843427268
 10
1657.8426741263
 20
-676.4096241572
 10
1661.1154386748
 20
-684.6715036223
 10
1664.1550151281
 20
-693.1642232841
 10
1666.9592851557
 20
-701.8818644281
 10
1669.5262944165
 20
-710.8183515884
 10
1671.8542539198
 20
-719.9674567818
 10
1673.9415412729
 20
-729.3228038481
 10
1675.7867018111
 20
-738.8778728937
 10
1677.3884496123
 20
-748.6260048357
 10
1678.7456683922
 20
-758.5604060424
 10
1679.857412283
 20
-768.674153068
 10
1680.7229064923
 20
-778.9601974778
 10
1681.3415478432
 20
-789.4113707601
 10
1681.7129051944
 20
-800.0203893223
 10
1681.8367197409
 20
-810.7798595669
 10
1681.7129051944
 20
-821.682283044
 10
1681.3415478432
 20
-832.7200616775
 10
1680.7229064923
 20
-843.8855030599
 10
1679.857412283
 20
-855.1708258135
 10
1678.7456683922
 20
-866.5681650135
 10
1677.3884496123
 20
-878.0695776686
 10
1675.7867018111
 20
-889.6670482575
 10
1673.9415412729
 20
-901.3524943143
 10
1671.8542539198
 20
-913.1177720616
 10
1669.5262944165
 20
-924.954682086
 10
1666.9592851557
 20
-936.8549750524
 10
1664.1550151281
 20
-948.810357453
 10
1661.1154386748
 20
-960.8124973876
 10
1657.8426741263
 20
-972.8530303696
 10
1654.3390023254
 20
-984.9235651557
 10
1650.6068650378
 20
-997.015689594
 10
1646.6488632509
 20
-1009.1209764862
 10
1642.4677553603
 20
-1021.2309894612
 10
1638.0664552482
 20
-1033.3372888539
 10
1633.4480302522
 20
-1045.4314375874
 10
1628.6156990277
 20
-1057.5050070527
 10
1623.5728293051
 20
-1069.5495829831
 10
1618.3229355422
 20
-1081.5567713175
 10
1612.8696764753
 20
-1093.5182040512
 10
1607.2168525695
 20
-1105.4255450673
 10
1601.3684033695
 20
-1117.2704959461
 10
1595.3284047547
 20
-1129.0448017487
 10
1589.1010660985
 20
-1140.74025677
 10
1582.6907273343
 20
-1152.348710257
 10
1576.1018559316
 20
-1163.8620720899
 10
1569.3390437819
 20
-1175.2723184196
 10
1562.407003999
 20
-1186.5714972597
 10
1555.3105676342
 20
-1197.7517340289
 10
1548.0546803094
 20
-1208.8052370382
 10
1540.6443987704
 20
-1219.7243029218
 10
1533.084887363
 20
-1230.5013220049
 10
1525.3814144335
 20
-1241.1287836078
 10
1517.5393486577
 20
-1251.5992812797
 10
1509.5641552985
 20
-1261.9055179603
 10
1501.461392398
 20
-1272.0403110659
 10
1493.2367069035
 20
-1281.9965974942
 10
1484.8958307319
 20
-1291.7674385474
 10
1476.4445767756
 20
-1301.3460247673
 10
1467.8888348508
 20
-1310.7256806816
 10
1459.2345675932
 20
-1319.8998694554
 10
1450.4878063025
 20
-1328.8621974474
 10
1441.6546467387
 20
-1337.6064186656
 10
1432.7412448745
 20
-1346.1264391198
 10
1423.7538126046
 20
-1354.4163210693
 10
1414.6986134167
 20
-1362.4702871606
 10
1405.5819580263
 20
-1370.2827244537
 10
1396.4101999788
 20
-1377.848188334
 10
1387.1897312216
 20
-1385.1614063068
 10
1377.9269776494
 20
-1392.2172816714
 10
1368.6283946256
 20
-1399.0108970736
 10
1359.300462484
 20
-1405.5375179323
 10
1349.9496820123
 20
-1411.7925957394
 10
1340.5825699214
 20
-1417.7717712293
 10
1331.205654304
 20
-1423.4708774175
 10
1321.8254700852
 20
-1428.8859425041
 10
1312.4485544679
 20
-1434.0131926423
 10
1303.081442377
 20
-1438.8490545679
 10
1293.7306619052
 20
-1443.3901580904
 10
1284.4027297637
 20
-1447.6333384406
 10
1275.1041467399
 20
-1451.5756384773
 10
1265.8413931676
 20
-1455.2143107473
 10
1256.6209244105
 20
-1458.546819401
 10
1247.449166363
 20
-1461.5708419587
 10
1238.3325109726
 20
-1464.28427093
 10
1229.2773117847
 20
-1466.6852152821
 10
1220.2898795147
 20
-1468.7720017578
 10
1211.3764776506
 20
-1470.5431760417
 10
1202.5433180868
 20
-1471.9975037737
 10
1193.7965567961
 20
-1473.133971409
 10
1185.1422895385
 20
-1473.951786925
 10
1176.5865476137
 20
-1474.4503803727
 10
1168.1352936574
 20
-1474.6294042741
 10
1159.7944174858
 20
-1474.4887338647
 10
1151.5697319912
 20
-1474.02846718
 10
1143.4669690908
 20
-1473.2489249872
 10
1135.4917757316
 20
-1472.150650562
 10
1127.6497099558
 20
-1470.7344093097
 10
1119.9462370263
 20
-1469.0011882318
 10
1112.3867256189
 20
-1466.9521952384
 10
1104.9764440799
 20
-1464.588858306
 10
1097.7205567551
 20
-1461.9128244825
 10
1090.6241203903
 20
-1458.9259587393
 10
1083.6920806074
 20
-1455.6303426719
 10
1076.9292684577
 20
-1452.0282730486
 10
1070.340397055
 20
-1448.1222602103
 10
1063.9300582908
 20
-1443.9150263209
 10
1057.7027196346
 20
-1439.4095034701
 10
1051.6627210198
 20
-1434.6088316301
 10
1045.8142718198
 20
-1429.5163564672
 10
1040.1614479139
 20
-1424.13562701
 10
1034.7081888471
 20
-1418.4703931765
 10
1029.4582950842
 20
-1412.5246031602
 10
1024.4154253615
 20
-1406.302400679
 10
1019.5830941371
 20
-1399.8081220868
 10
1014.9646691411
 20
-1393.0462933521
 10
1010.563369029
 20
-1386.0216269032
 10
1006.3822611384
 20
-1378.7390183445
 10
1002.4242593515
 20
-1371.2035430443
 10
998.6921220639
 20
-1363.4204525979
 10
995.188450263
 20
-1355.3951711675
 10
991.9156857145
 20
-1347.1332917023
 10
988.8761092612
 20
-1338.6405720405
 10
986.0718392335
 20
-1329.9229308965
 10
983.5048299728
 20
-1320.9864437362
 10
981.5003541879
 20
-1313.1802337165
  0
LWPOLYLINE
  5
B9
330
1F
100
AcDbEntity
  8
0
  6
Continuous
 62
     7
370
    25
100
AcDbPolyline
 90
      141
 70
   128
 43
0.0
 10
1476.7833219476
 20
-583.6493850268
 10
1477.9095268651
 20
-583.6554636299
 10
1485.975293184
 20
-583.8813737243
 10
1493.9230926406
 20
-584.4268890529
 10
1501.7470455249
 20
-585.2916060483
 10
1509.4413637475
 20
-586.4748850007
 10
1517.0003551217
 20
-587.9758505312
 10
1524.4184275742
 20
-589.793392239
 10
1531.6900932824
 20
-591.9261655233
 10
1538.8099727338
 20
-594.3725925777
 10
1545.7727987062
 20
-597.1308635578
 10
1552.5734201642
 20
-600.1989379196
 10
1559.2068060697
 20
-603.5745459296
 10
1565.6680491041
 20
-607.2551903436
 10
1571.9523692982
 20
-611.2381482543
 10
1578.0551175691
 20
-615.5204731054
 10
1583.9717791589
 20
-620.0989968721
 10
1589.6979769752
 20
-624.9703324038
 10
1595.2294748286
 20
-630.1308759308
 10
1600.5621805672
 20
-635.5768097298
 10
1605.6921491038
 20
-641.3041049484
 10
1610.6155853341
 20
-647.3085245855
 10
1615.3288469447
 20
-653.585626626
 10
1619.8284471074
 20
-660.1307673267
 10
1624.1110570589
 20
-666.9391046519
 10
1628.173508563
 20
-674.0056018553
 10
1632.0127962552
 20
-681.3250312066
 10
1635.6260798651
 20
-688.8919778583
 10
1639.0106863183
 20
-696.7008438518
 10
1642.1641117138
 20
-704.745852259
 10
1645.0840231759
 20
-713.0210514556
 10
1647.7682605807
 20
-721.5203195243
 10
1650.2148381536
 20
-730.2373687837
 10
1652.4219459389
 20
-739.1657504399
 10
1654.3879511382
 20
-748.2988593572
 10
1656.1113993186
 20
-757.6299389443
 10
1657.5910154889
 20
-767.1520861533
 10
1658.8257050424
 20
-776.858256586
 10
1659.8145545671
 20
-786.7412697056
 10
1660.5568325209
 20
-796.7938141488
 10
1661.0519897734
 20
-807.0084531342
 10
1661.2996600117
 20
-817.3776299646
 10
1661.2996600117
 20
-827.8936736172
 10
1661.0519897734
 20
-838.5488044181
 10
1660.5568325209
 20
-849.3351397984
 10
1659.8145545671
 20
-860.2447001248
 10
1658.8257050424
 20
-871.2694146038
 10
1657.5910154889
 20
-882.4011272515
 10
1656.1113993186
 20
-893.6316029279
 10
1654.3879511382
 20
-904.952533429
 10
1652.4219459389
 20
-916.3555436331
 10
1650.2148381536
 20
-927.8321976967
 10
1647.7682605807
 20
-939.3740052952
 10
1645.0840231759
 20
-950.9724279042
 10
1642.1641117138
 20
-962.6188851157
 10
1639.0106863183
 20
-974.3047609864
 10
1635.6260798651
 20
-986.0214104113
 10
1632.0127962552
 20
-997.7601655195
 10
1628.173508563
 20
-1009.5123420865
 10
1624.1110570589
 20
-1021.2692459586
 10
1619.8284471074
 20
-1033.022179485
 10
1615.3288469447
 20
-1044.7624479521
 10
1610.6155853341
 20
-1056.4813660159
 10
1605.6921491038
 20
-1068.170264127
 10
1600.5621805672
 20
-1079.8204949447
 10
1595.2294748286
 20
-1091.4234397339
 10
1589.6979769752
 20
-1102.9705147413
 10
1583.9717791589
 20
-1114.4531775456
 10
1578.0551175691
 20
-1125.8629333769
 10
1571.9523692982
 20
-1137.1913414016
 10
1565.6680491041
 20
-1148.430020966
 10
1559.2068060697
 20
-1159.5706577971
 10
1552.5734201642
 20
-1170.6050101526
 10
1545.7727987062
 20
-1181.524914919
 10
1538.8099727338
 20
-1192.3222936496
 10
1531.6900932824
 20
-1202.9891585417
 10
1524.4184275742
 20
-1213.5176183453
 10
1517.0003551217
 20
-1223.8998842016
 10
1509.4413637475
 20
-1234.1282754042
 10
1501.7470455249
 20
-1244.1952250823
 10
1493.9230926406
 20
-1254.0932857978
 10
1485.975293184
 20
-1263.8151350551
 10
1477.9095268651
 20
-1273.3535807184
 10
1469.7317606646
 20
-1282.7015663322
 10
1461.4480444197
 20
-1291.8521763414
 10
1453.0645063486
 20
-1300.7986412078
 10
1444.5873485168
 20
-1309.5343424178
 10
1436.0228422485
 20
-1318.052817379
 10
1427.377323488
 20
-1326.3477642009
 10
1418.6571881115
 20
-1334.413046357
 10
1409.868887196
 20
-1342.2426972248
 10
1401.0189222469
 20
-1349.8309244996
 10
1392.113840388
 20
-1357.1721144797
 10
1383.160229518
 20
-1364.2608362193
 10
1374.1647134369
 20
-1371.0918455465
 10
1365.1339469461
 20
-1377.6600889425
 10
1356.0746109246
 20
-1383.9607072804
 10
1346.9934073869
 20
-1389.9890394199
 10
1337.8970545252
 20
-1395.7406256556
 10
1328.7922817388
 20
-1401.2112110162
 10
1319.6858246558
 20
-1406.3967484123
 10
1310.5844201508
 20
-1411.2934016304
 10
1301.49480136
 20
-1415.8975481707
 10
1292.4236927012
 20
-1420.2057819276
 10
1283.3778048981
 20
-1424.2149157086
 10
1274.3638300165
 20
-1427.9219835931
 10
1265.3884365133
 20
-1431.3242431259
 10
1256.4582643031
 20
-1434.4191773461
 10
1247.5799198463
 20
-1437.2044966496
 10
1238.7599712615
 20
-1439.6781404824
 10
1230.0049434668
 20
-1441.8382788652
 10
1221.3213133523
 20
-1443.6833137473
 10
1212.7155049888
 20
-1445.2118801885
 10
1204.1938848751
 20
-1446.4228473694
 10
1195.7627572286
 20
-1447.3153194273
 10
1187.428359321
 20
-1447.8886361195
 10
1179.1968568643
 20
-1448.1423733116
 10
1171.0743394493
 20
-1448.0763432911
 10
1163.0668160406
 20
-1447.6905949063
 10
1155.1802105316
 20
-1446.9854135305
 10
1147.4203573613
 20
-1445.9613208504
 10
1139.7929971988
 20
-1444.6190744805
 10
1132.3037726958
 20
-1442.9596674024
 10
1124.9582243128
 20
-1440.9843272306
 10
1117.7617862199
 20
-1438.6945153037
 10
1110.7197822765
 20
-1436.0919256038
 10
1103.8374220934
 20
-1433.1784835031
 10
1097.1197971781
 20
-1429.9563443398
 10
1090.5718771687
 20
-1426.427891823
 10
1084.198506157
 20
-1422.5957362701
 10
1078.004399105
 20
-1418.4627126748
 10
1071.9941383569
 20
-1414.0318786106
 10
1066.172170249
 20
-1409.3065119683
 10
1060.5428018207
 20
-1404.2901085312
 10
1055.1101976275
 20
-1398.9863793892
 10
1049.8783766608
 20
-1393.3992481929
 10
1044.8512093743
 20
-1387.5328482513
 10
1040.0324148207
 20
-1381.3915194738
 10
1035.4255579004
 20
-1374.9798051598
 10
1031.0340467246
 20
-1368.3024486374
 10
1027.3398462049
 20
-1362.1926769306
  0
LWPOLYLINE
  5
BA
330
1F
100
AcDbEntity
  8
0
  6
Continuous
 62
     7
370
    25
100
AcDbPolyline
 90
      114
 70
   128
 43
0.0
 10
1519.6774718844
 20
-607.811227075
 10
1523.5882798998
 20
-610.1487649028
 10
1529.6708075732
 20
-614.1170672712
 10
1535.5701087705
 20
-618.3843460182
 10
1541.2815833939
 20
-622.9472736484
 10
1546.8007778074
 20
-627.8022921279
 10
1552.1233883092
 20
-632.9456156594
 10
1557.2452644878
 20
-638.373233634
 10
1562.1624124581
 20
-644.0809137583
 10
1566.8709979761
 20
-650.0642053552
 10
1571.3673494285
 20
-656.3184428338
 10
1575.6479606955
 20
-662.8387493278
 10
1579.7094938855
 20
-669.6200404985
 10
1583.5487819368
 20
-676.6570284989
 10
1587.1628310883
 20
-683.9442260974
 10
1590.548823213
 20
-691.4759509567
 10
1593.7041180162
 20
-699.2463300641
 10
1596.6262550938
 20
-707.2493043118
 10
1599.3129558514
 20
-715.4786332213
 10
1601.7621252805
 20
-723.9278998093
 10
1603.9718535923
 20
-732.590515592
 10
1605.9404177073
 20
-741.4597257222
 10
1607.6662825984
 20
-750.5286142565
 10
1609.1481024881
 20
-759.7901095485
 10
1610.3847218977
 20
-769.2369897628
 10
1611.3751765487
 20
-778.8618885063
 10
1612.1186941142
 20
-788.6573005726
 10
1612.6146948218
 20
-798.6155877939
 10
1612.8627919049
 20
-808.7289849974
 10
1612.8627919049
 20
-818.9896060603
 10
1612.6146948218
 20
-829.3894500588
 10
1612.1186941142
 20
-839.9204075074
 10
1611.3751765487
 20
-850.5742666823
 10
1610.3847218977
 20
-861.3427200246
 10
1609.1481024881
 20
-872.2173706183
 10
1607.6662825984
 20
-883.1897387379
 10
1605.9404177073
 20
-894.2512684609
 10
1603.9718535923
 20
-905.3933343392
 10
1601.7621252805
 20
-916.6072481249
 10
1599.3129558514
 20
-927.8842655453
 10
1596.6262550938
 20
-939.2155931216
 10
1593.7041180161
 20
-950.5923950253
 10
1590.548823213
 20
-962.0057999685
 10
1587.1628310883
 20
-973.4469081213
 10
1583.5487819368
 20
-984.9067980519
 10
1579.7094938855
 20
-996.3765336827
 10
1575.6479606955
 20
-1007.8471712588
 10
1571.3673494285
 20
-1019.3097663223
 10
1566.8709979761
 20
-1030.7553806862
 10
1562.1624124581
 20
-1042.1750894048
 10
1557.2452644878
 20
-1053.5599877327
 10
1552.1233883092
 20
-1064.9011980687
 10
1546.8007778074
 20
-1076.189876878
 10
1541.2815833939
 20
-1087.4172215886
 10
1535.5701087705
 20
-1098.5744774547
 10
1529.6708075732
 20
-1109.6529443839
 10
1523.5882798998
 20
-1120.6439837208
 10
1517.3272687223
 20
-1131.5390249837
 10
1510.8926561889
 20
-1142.3295725471
 10
1504.289459817
 20
-1153.0072122665
 10
1497.5228285803
 20
-1163.5636180397
 10
1490.5980388944
 20
-1173.9905582991
 10
1483.520490502
 20
-1184.2799024303
 10
1476.2957022624
 20
-1194.4236271122
 10
1468.9293078482
 20
-1204.4138225734
 10
1461.4270513522
 20
-1214.2426987601
 10
1453.7947828082
 20
-1223.9025914102
 10
1446.0384536298
 20
-1233.3859680301
 10
1438.164111969
 20
-1242.6854337679
 10
1430.1778980008
 20
-1251.7937371799
 10
1422.0860391343
 20
-1260.7037758852
 10
1413.894845158
 20
-1269.4086021036
 10
1405.6107033182
 20
-1277.9014280735
 10
1397.2400733398
 20
-1286.1756313446
 10
1388.7894823882
 20
-1294.2247599421
 10
1380.2655199799
 20
-1302.0425373977
 10
1371.6748328445
 20
-1309.6228676436
 10
1363.0241197413
 20
-1316.9598397664
 10
1354.3201262363
 20
-1324.0477326159
 10
1345.5696394417
 20
-1330.8810192665
 10
1336.779482724
 20
-1337.4543713267
 10
1327.9565103828
 20
-1343.7626630945
 10
1319.1076023068
 20
-1349.8009755535
 10
1310.2396586081
 20
-1355.5646002095
 10
1301.3595942425
 20
-1361.0490427612
 10
1292.4743336172
 20
-1366.2500266053
 10
1283.590805191
 20
-1371.1634961712
 10
1274.7159360722
 20
-1375.7856200829
 10
1265.8566466168
 20
-1380.1127941474
 10
1257.0198450322
 20
-1384.1416441645
 10
1248.2124219905
 20
-1387.869028558
 10
1239.4412452552
 20
-1391.2920408259
 10
1230.7131543261
 20
-1394.408011806
 10
1222.034955106
 20
-1397.2145117579
 10
1213.4134145935
 20
-1399.7093522575
 10
1204.8552556066
 20
-1401.8905879031
 10
1196.3671515403
 20
-1403.7565178327
 10
1187.9557211627
 20
-1405.3056870504
 10
1179.6275234543
 20
-1406.5368875607
 10
1171.3890524932
 20
-1407.4491593102
 10
1163.246732391
 20
-1408.0417909371
 10
1155.2069122843
 20
-1408.314320325
 10
1147.2758613827
 20
-1408.2665349636
 10
1139.4597640813
 20
-1407.8984721146
 10
1131.7647151376
 20
-1407.2104187823
 10
1124.1967149192
 20
-1406.20291149
 10
1116.7616647252
 20
-1404.8767358615
 10
1109.465362184
 20
-1403.2329260088
 10
1102.3134967329
 20
-1401.2727637252
 10
1095.3116451813
 20
-1398.9977774865
 10
1088.4652673626
 20
-1396.4097412584
 10
1081.7797018761
 20
-1393.5106731137
 10
1075.2601619248
 20
-1390.3028336585
 10
1069.7140421981
 20
-1387.2552032176
  0
LWPOLYLINE
  5
BB
330
1F
100
AcDbEntity
  8
0
  6
Continuous
 62
     7
370
    25
100
AcDbPolyline
 90
      226
 70
   128
 43
0.0
 10
944.6779003539
 20
-1162.8558577904
 10
944.8019609884
 20
-1152.5246182119
 10
945.1740461531
 20
-1142.0581972636
 10
945.7938657072
 20
-1131.4647563457
 10
946.660936334
 20
-1120.7525559048
 10
947.774581918
 20
-1109.9299489925
 10
949.1339340718
 20
-1099.0053747521
 10
950.7379328136
 20
-1087.9873518381
 10
952.5853273932
 20
-1076.8844717732
 10
954.6746772681
 20
-1065.7053922494
 10
957.0043532261
 20
-1054.4588303765
 10
959.5725386558
 20
-1043.1535558854
 10
962.3772309636
 20
-1031.7983842888
 10
965.4162431347
 20
-1020.4021700081
 10
968.687205439
 20
-1008.9737994683
 10
972.1875672783
 20
-997.522184169
 10
975.9145991758
 20
-986.0562537355
 10
979.8653949042
 20
-974.5849489552
 10
984.0368737517
 20
-963.1172148066
 10
988.4257829247
 20
-951.6619934838
 10
993.0287000838
 20
-940.2282174239
 10
997.8420360127
 20
-928.8248023415
 10
1002.8620374167
 20
-917.4606402767
 10
1008.0847898499
 20
-906.1445926611
 10
1013.5062207669
 20
-894.8854834083
 10
1019.122102699
 20
-883.692092033
 10
1024.9280565504
 20
-872.5731468051
 10
1030.919555013
 20
-861.5373179437
 10
1037.0919260964
 20
-850.5932108561
 10
1043.4403567714
 20
-839.7493594279
 10
1049.9598967227
 20
-829.0142193681
 10
1056.6454622092
 20
-818.396161616
 10
1063.4918400279
 20
-807.9034658138
 10
1070.4936915795
 20
-797.5443138499
 10
1077.6455570307
 20
-787.3267834795
 10
1084.9418595719
 20
-777.2588420254
 10
1092.3769097659
 20
-767.3483401654
 10
1099.9449099842
 20
-757.6030058109
 10
1107.6399589279
 20
-748.0304380804
 10
1115.4560562293
 20
-738.6381013742
 10
1123.3871071309
 20
-729.4333195541
 10
1131.4269272376
 20
-720.4232702319
 10
1139.5692473398
 20
-711.6149791732
 10
1147.8077183009
 20
-703.0153148182
 10
1156.1359160093
 20
-694.6309829267
 10
1164.5473463869
 20
-686.4685213483
 10
1173.0354504532
 20
-678.5342949252
 10
1181.5936094401
 20
-670.8344905284
 10
1190.2151499526
 20
-663.3751122337
 10
1198.8933491727
 20
-656.16197664
 10
1207.6214401018
 20
-649.2007083335
 10
1216.3926168371
 20
-642.4967355017
 10
1225.2000398788
 20
-636.055285701
 10
1234.0368414634
 20
-629.8813817802
 10
1242.8961309188
 20
-623.9798379639
 10
1251.7710000376
 20
-618.3552560984
 10
1260.6545284638
 20
-613.0120220634
 10
1269.5397890891
 20
-607.9543023522
 10
1278.4198534547
 20
-603.1860408223
 10
1287.2877971534
 20
-598.7109556209
 10
1296.1367052295
 20
-594.5325362845
 10
1304.9596775706
 20
-590.654041019
 10
1313.7498342883
 20
-587.0784941584
 10
1322.5003210829
 20
-583.8086838064
 10
1331.2043145879
 20
-580.8471596629
 10
1339.8550276911
 20
-578.1962310352
 10
1348.4457148265
 20
-575.8579650378
 10
1356.9696772348
 20
-573.8341849803
 10
1365.4202681864
 20
-572.1264689453
 10
1373.7908981649
 20
-570.7361485584
 10
1382.0750400046
 20
-569.6643079498
 10
1390.266233981
 20
-568.9117829085
 10
1398.3580928474
 20
-568.4791602308
 10
1406.3443068156
 20
-568.3667772629
 10
1414.2186484764
 20
-568.5747216377
 10
1421.9749776548
 20
-569.1028312063
 10
1429.6072461988
 20
-569.9506941649
 10
1437.1095026948
 20
-571.1176493754
 10
1444.475897109
 20
-572.6027868813
 10
1451.7006853486
 20
-574.4049486169
 10
1458.778233741
 20
-576.5227293108
 10
1465.7030234269
 20
-578.9544775813
 10
1472.4696546636
 20
-581.6982972243
 10
1479.0728510356
 20
-584.7520486916
 10
1485.5074635689
 20
-588.1133507599
 10
1491.7684747464
 20
-591.7795823868
 10
1497.8510024198
 20
-595.7478847552
 10
1503.7503036171
 20
-600.0151635022
 10
1509.4617782405
 20
-604.5780911324
 10
1514.980972654
 20
-609.4331096119
 10
1520.3035831558
 20
-614.5764331434
 10
1525.4254593344
 20
-620.004051118
 10
1530.3426073047
 20
-625.7117312423
 10
1535.0511928227
 20
-631.6950228392
 10
1539.5475442751
 20
-637.9492603178
 10
1543.8281555422
 20
-644.4695668118
 10
1547.8896887321
 20
-651.2508579825
 10
1551.7289767834
 20
-658.2878459829
 10
1555.3430259349
 20
-665.5750435814
 10
1558.7290180596
 20
-673.1067684406
 10
1561.8843128628
 20
-680.8771475481
 10
1564.8064499404
 20
-688.8801217958
 10
1567.493150698
 20
-697.1094507053
 10
1569.9423201271
 20
-705.5587172933
 10
1572.1520484389
 20
-714.221333076
 10
1574.120612554
 20
-723.0905432061
 10
1575.846477445
 20
-732.1594317405
 10
1577.3282973347
 20
-741.4209270325
 10
1578.5649167443
 20
-750.8678072468
 10
1579.5553713953
 20
-760.4927059903
 10
1580.2988889608
 20
-770.2881180566
 10
1580.7948896684
 20
-780.2464052779
 10
1581.0429867515
 20
-790.3598024814
 10
1581.0429867515
 20
-800.6204235443
 10
1580.7948896684
 20
-811.0202675427
 10
1580.2988889608
 20
-821.5512249914
 10
1579.5553713953
 20
-832.2050841663
 10
1578.5649167443
 20
-842.9735375086
 10
1577.3282973347
 20
-853.8481881022
 10
1575.846477445
 20
-864.8205562219
 10
1574.120612554
 20
-875.8820859449
 10
1572.1520484389
 20
-887.0241518232
 10
1569.9423201271
 20
-898.2380656089
 10
1567.493150698
 20
-909.5150830293
 10
1564.8064499404
 20
-920.8464106056
 10
1561.8843128628
 20
-932.2232125093
 10
1558.7290180596
 20
-943.6366174524
 10
1555.3430259349
 20
-955.0777256053
 10
1551.7289767834
 20
-966.5376155359
 10
1547.8896887321
 20
-978.0073511666
 10
1543.8281555421
 20
-989.4779887428
 10
1539.5475442751
 20
-1000.9405838063
 10
1535.0511928227
 20
-1012.3861981702
 10
1530.3426073047
 20
-1023.8059068888
 10
1525.4254593344
 20
-1035.1908052167
 10
1520.3035831558
 20
-1046.5320155526
 10
1514.980972654
 20
-1057.820694362
 10
1509.4617782405
 20
-1069.0480390726
 10
1503.7503036171
 20
-1080.2052949387
 10
1497.8510024198
 20
-1091.2837618679
 10
1491.7684747464
 20
-1102.2748012048
 10
1485.5074635689
 20
-1113.1698424677
 10
1479.0728510355
 20
-1123.960390031
 10
1472.4696546636
 20
-1134.6380297505
 10
1465.7030234269
 20
-1145.1944355237
 10
1458.778233741
 20
-1155.6213757831
 10
1451.7006853486
 20
-1165.9107199143
 10
1444.475897109
 20
-1176.0544445961
 10
1437.1095026948
 20
-1186.0446400574
 10
1429.6072461988
 20
-1195.8735162441
 10
1421.9749776548
 20
-1205.5334088942
 10
1414.2186484764
 20
-1215.0167855141
 10
1406.3443068156
 20
-1224.3162512518
 10
1398.3580928474
 20
-1233.4245546639
 10
1390.266233981
 20
-1242.3345933692
 10
1382.0750400046
 20
-1251.0394195876
 10
1373.7908981648
 20
-1259.5322455575
 10
1365.4202681864
 20
-1267.8064488286
 10
1356.9696772348
 20
-1275.8555774261
 10
1348.4457148265
 20
-1283.6733548817
 10
1339.8550276911
 20
-1291.2536851276
 10
1331.2043145879
 20
-1298.5906572504
 10
1322.5003210829
 20
-1305.6785500999
 10
1313.7498342883
 20
-1312.5118367505
 10
1304.9596775706
 20
-1319.0851888107
 10
1296.1367052295
 20
-1325.3934805785
 10
1287.2877971534
 20
-1331.4317930375
 10
1278.4198534547
 20
-1337.1954176935
 10
1269.5397890891
 20
-1342.6798602452
 10
1260.6545284638
 20
-1347.8808440893
 10
1251.7710000376
 20
-1352.7943136552
 10
1242.8961309188
 20
-1357.4164375669
 10
1234.0368414634
 20
-1361.7436116314
 10
1225.2000398788
 20
-1365.7724616485
 10
1216.3926168371
 20
-1369.499846042
 10
1207.6214401018
 20
-1372.9228583099
 10
1198.8933491727
 20
-1376.03882929
 10
1190.2151499526
 20
-1378.8453292419
 10
1181.5936094401
 20
-1381.3401697415
 10
1173.0354504532
 20
-1383.5214053871
 10
1164.5473463869
 20
-1385.3873353167
 10
1156.1359160093
 20
-1386.9365045344
 10
1147.8077183009
 20
-1388.1677050446
 10
1139.5692473398
 20
-1389.0799767942
 10
1131.4269272376
 20
-1389.6726084211
 10
1123.3871071309
 20
-1389.945137809
 10
1115.4560562293
 20
-1389.8973524476
 10
1107.6399589279
 20
-1389.5292895986
 10
1099.9449099842
 20
-1388.8412362663
 10
1092.3769097659
 20
-1387.8337289739
 10
1084.9418595718
 20
-1386.5075533455
 10
1077.6455570306
 20
-1384.8637434927
 10
1070.4936915795
 20
-1382.9035812092
 10
1063.4918400279
 20
-1380.6285949705
 10
1056.6454622092
 20
-1378.0405587423
 10
1049.9598967227
 20
-1375.1414905977
 10
1043.4403567714
 20
-1371.9336511425
 10
1037.0919260964
 20
-1368.4195417537
 10
1030.919555013
 20
-1364.6019026279
 10
1024.9280565504
 20
-1360.4837106453
 10
1019.122102699
 20
-1356.0681770482
 10
1013.5062207669
 20
-1351.3587449368
 10
1008.0847898499
 20
-1346.3590865846
 10
1002.8620374167
 20
-1341.0731005749
 10
997.8420360127
 20
-1335.5049087604
 10
993.0287000838
 20
-1329.6588530497
 10
988.4257829247
 20
-1323.5394920212
 10
984.0368737517
 20
-1317.1515973685
 10
979.8653949042
 20
-1310.5001501798
 10
975.9145991758
 20
-1303.5903370534
 10
972.1875672783
 20
-1296.4275460538
 10
968.687205439
 20
-1289.0173625099
 10
965.4162431347
 20
-1281.36556466
 10
962.3772309636
 20
-1273.4781191458
 10
959.5725386558
 20
-1265.3611763602
 10
957.0043532261
 20
-1257.0210656509
 10
954.6746772681
 20
-1248.4642903854
 10
952.5853273932
 20
-1239.6975228796
 10
950.7379328136
 20
-1230.7275991952
 10
949.1339340718
 20
-1221.5615138088
 10
947.774581918
 20
-1212.206414158
 10
946.660936334
 20
-1202.6695950682
 10
945.7938657072
 20
-1192.958493064
 10
945.1740461531
 20
-1183.0806805707
 10
944.8019609884
 20
-1173.0438600092
 10
944.6779003539
 20
-1162.8558577904
  0
LWPOLYLINE
  5
BC
330
1F
100
AcDbEntity
  8
0
  6
Continuous
 62
     7
370
    25
100
AcDbPolyline
 90
      212
 70
   128
 43
0.0
 10
982.3666917911
 20
-1141.0985816103
 10
982.4910515699
 20
-1131.3824322233
 10
982.86402064
 20
-1121.5313151243
 10
983.4852683002
 20
-1111.5539650179
 10
984.3542437082
 20
-1101.4592285358
 10
985.4701763681
 20
-1091.2560563927
 10
986.8320768143
 20
-1080.9534954504
 10
988.4387374885
 20
-1070.5606806956
 10
990.2887338107
 20
-1060.0868271406
 10
992.3804254417
 20
-1049.5412216526
 10
994.7119577383
 20
-1038.9332147191
 10
997.2812633974
 20
-1028.2722121571
 10
1000.086064289
 20
-1017.5676667735
 10
1003.123873476
 20
-1006.8290699832
 10
1006.3919974198
 20
-996.0659433936
 10
1009.8875383682
 20
-985.287830362
 10
1013.6073969246
 20
-974.5042875336
 10
1017.5482747967
 20
-963.7248763683
 10
1021.7066777204
 20
-952.9591546624
 10
1026.0789185586
 20
-942.216668074
 10
1030.66112057
 20
-931.5069416597
 10
1035.4492208469
 20
-920.8394714281
 10
1040.4389739174
 20
-910.2237159209
 10
1045.6259555097
 20
-899.6690878256
 10
1051.0055664753
 20
-889.1849456296
 10
1056.5730368667
 20
-878.7805853229
 10
1062.3234301666
 20
-868.4652321548
 10
1068.2516476655
 20
-858.2480324547
 10
1074.352432982
 20
-848.1380455219
 10
1080.6203767238
 20
-838.1442355936
 10
1087.049921284
 20
-828.2754638958
 10
1093.635365769
 20
-818.5404807867
 10
1100.370871053
 20
-808.9479179983
 10
1107.2504649556
 20
-799.5062809821
 10
1114.2680475372
 20
-790.2239413684
 10
1121.4173965076
 20
-781.1091295428
 10
1128.692172743
 20
-772.169927349
 10
1136.0859259069
 20
-763.4142609225
 10
1143.5921001692
 20
-754.8498936628
 10
1151.2040400196
 20
-746.4844193501
 10
1158.914996168
 20
-738.3252554117
 10
1166.7181315297
 20
-730.3796363456
 10
1174.6065272871
 20
-722.6546073055
 10
1182.5731890249
 20
-715.1570178541
 10
1190.6110529313
 20
-707.8935158903
 10
1198.7129920618
 20
-700.8705417538
 10
1206.8718226581
 20
-694.0943225155
 10
1215.0803105179
 20
-687.5708664556
 10
1223.3311774092
 20
-681.3059577366
 10
1231.6171075238
 20
-675.3051512742
 10
1239.9307539638
 20
-669.5737678122
 10
1248.2647452561
 20
-664.116889205
 10
1256.6116918885
 20
-658.9393539111
 10
1264.9641928615
 20
-654.0457527032
 10
1273.3148422508
 20
-649.440424598
 10
1281.6562357738
 20
-645.1274530085
 10
1289.980977355
 20
-641.1106621235
 10
1298.2816856834
 20
-637.393613517
 10
1306.5510007579
 20
-633.9796029897
 10
1314.7815904126
 20
-630.8716576476
 10
1322.9661568186
 20
-628.072533217
 10
1331.0974429544
 20
-625.5847116018
 10
1339.1682390405
 20
-623.4103986823
 10
1347.1713889324
 20
-621.5515223597
 10
1355.0997964653
 20
-620.0097308468
 10
1362.9464317465
 20
-618.786391206
 10
1370.7043373884
 20
-617.8825881376
 10
1378.3666346774
 20
-617.2991230182
 10
1385.9265296731
 20
-617.0365131895
 10
1393.3773192323
 20
-617.0949915002
 10
1400.7123969525
 20
-617.4745060993
 10
1407.9252590296
 20
-618.1747204819
 10
1415.0095100245
 20
-619.195013788
 10
1421.9588685341
 20
-620.5344813526
 10
1428.7671727603
 20
-622.191935508
 10
1435.4283859742
 20
-624.1659066369
 10
1441.9366018679
 20
-626.4546444755
 10
1448.2860497922
 20
-629.0561196652
 10
1454.4710998728
 20
-631.9680255521
 10
1460.4862680021
 20
-635.1877802325
 10
1466.3262207024
 20
-638.7125288416
 10
1471.985779854
 20
-642.5391460856
 10
1477.4599272874
 20
-646.6642390119
 10
1482.7438092322
 20
-651.0841500185
 10
1487.8327406212
 20
-655.7949600964
 10
1492.7222092439
 20
-660.7924923046
 10
1497.4078797482
 20
-666.0723154739
 10
1501.8855974836
 20
-671.6297481359
 10
1506.1513921855
 20
-677.4598626734
 10
1510.2014814957
 20
-683.5574896904
 10
1514.0322743153
 20
-689.9172225948
 10
1517.6403739897
 20
-696.533422393
 10
1521.0225813199
 20
-703.4002226893
 10
1524.1758973991
 20
-710.511534888
 10
1527.097526272
 20
-717.8610535913
 10
1529.7848774135
 20
-725.4422621907
 10
1532.2355680261
 20
-733.2484386449
 10
1534.4474251523
 20
-741.2726614398
 10
1536.4184876016
 20
-749.5078157262
 10
1538.1470076891
 20
-757.9465996277
 10
1539.6314527854
 20
-766.5815307152
 10
1540.8705066752
 20
-775.4049526419
 10
1541.863070725
 20
-784.4090419313
 10
1542.6082648565
 20
-793.5858149142
 10
1543.1054283273
 20
-802.9271348079
 10
1543.3541203168
 20
-812.4247189306
 10
1543.3541203168
 20
-822.0701460454
 10
1543.1054283273
 20
-831.8548638273
 10
1542.6082648565
 20
-841.7701964462
 10
1541.863070725
 20
-851.8073522596
 10
1540.8705066752
 20
-861.9574316078
 10
1539.6314527854
 20
-872.211434705
 10
1538.1470076891
 20
-882.5602696192
 10
1536.4184876016
 20
-892.9947603338
 10
1534.4474251523
 20
-903.5056548837
 10
1532.2355680261
 20
-914.0836335584
 10
1529.7848774135
 20
-924.7193171661
 10
1527.097526272
 20
-935.4032753496
 10
1524.1758973991
 20
-946.1260349481
 10
1521.0225813199
 20
-956.8780883965
 10
1517.6403739897
 20
-967.6499021557
 10
1514.0322743153
 20
-978.431925166
 10
1510.2014814957
 20
-989.214597315
 10
1506.1513921855
 20
-999.9883579151
 10
1501.8855974836
 20
-1010.7436541801
 10
1497.4078797482
 20
-1021.4709496957
 10
1492.7222092439
 20
-1032.160732875
 10
1487.8327406212
 20
-1042.8035253923
 10
1482.7438092322
 20
-1053.3898905871
 10
1477.4599272874
 20
-1063.9104418315
 10
1471.985779854
 20
-1074.3558508527
 10
1466.3262207023
 20
-1084.7168560048
 10
1460.4862680021
 20
-1094.9842704799
 10
1454.4710998728
 20
-1105.1489904547
 10
1448.2860497922
 20
-1115.2020031619
 10
1441.9366018679
 20
-1125.134394882
 10
1435.4283859742
 20
-1134.9373588467
 10
1428.7671727603
 20
-1144.6022030475
 10
1421.9588685341
 20
-1154.1203579429
 10
1415.0095100245
 20
-1163.4833840563
 10
1407.9252590296
 20
-1172.6829794598
 10
1400.7123969525
 20
-1181.7109871346
 10
1393.3773192323
 20
-1190.5594022038
 10
1385.9265296731
 20
-1199.2203790302
 10
1378.3666346774
 20
-1207.6862381729
 10
1370.7043373884
 20
-1215.949473196
 10
1362.9464317465
 20
-1224.0027573249
 10
1355.0997964653
 20
-1231.8389499422
 10
1347.1713889324
 20
-1239.4511029195
 10
1339.1682390405
 20
-1246.8324667781
 10
1331.0974429544
 20
-1253.9764966731
 10
1322.9661568186
 20
-1260.8768581971
 10
1314.7815904126
 20
-1267.5274329964
 10
1306.5510007579
 20
-1273.9223241961
 10
1298.2816856834
 20
-1280.0558616285
 10
1289.980977355
 20
-1285.9226068612
 10
1281.6562357738
 20
-1291.5173580184
 10
1273.3148422508
 20
-1296.8351543939
 10
1264.9641928615
 20
-1301.8712808495
 10
1256.6116918885
 20
-1306.6212719954
 10
1248.2647452561
 20
-1311.08091615
 10
1239.9307539638
 20
-1315.2462590742
 10
1231.6171075238
 20
-1319.1136074772
 10
1223.3311774092
 20
-1322.6795322915
 10
1215.0803105179
 20
-1325.9408717132
 10
1206.8718226581
 20
-1328.8947340059
 10
1198.7129920618
 20
-1331.5385000641
 10
1190.6110529313
 20
-1333.8698257358
 10
1182.5731890249
 20
-1335.8866439011
 10
1174.6065272871
 20
-1337.5871663048
 10
1166.7181315297
 20
-1338.9698851424
 10
1158.914996168
 20
-1340.0335743964
 10
1151.2040400196
 20
-1340.7772909238
 10
1143.5921001692
 20
-1341.2003752926
 10
1136.0859259068
 20
-1341.3024523658
 10
1128.692172743
 20
-1341.0834316347
 10
1121.4173965076
 20
-1340.5435072986
 10
1114.2680475372
 20
-1339.6831580931
 10
1107.2504649556
 20
-1338.5031468652
 10
1100.370871053
 20
-1337.0045198972
 10
1093.635365769
 20
-1335.188605979
 10
1087.049921284
 20
-1333.0570152296
 10
1080.6203767238
 20
-1330.6116376696
 10
1074.352432982
 20
-1327.8546415457
 10
1068.2516476655
 20
-1324.7884714075
 10
1062.3234301666
 20
-1321.4158459406
 10
1056.5730368667
 20
-1317.739755556
 10
1051.0055664753
 20
-1313.7634597379
 10
1045.6259555097
 20
-1309.4904841545
 10
1040.4389739174
 20
-1304.9246175313
 10
1035.4492208469
 20
-1300.0699082919
 10
1030.66112057
 20
-1294.9306609685
 10
1026.0789185586
 20
-1289.5114323852
 10
1021.7066777204
 20
-1283.8170276172
 10
1017.5482747967
 20
-1277.8524957308
 10
1013.6073969246
 20
-1271.6231253062
 10
1009.8875383682
 20
-1265.1344397485
 10
1006.3919974198
 20
-1258.39219239
 10
1003.123873476
 20
-1251.4023613891
 10
1000.086064289
 20
-1244.1711444295
 10
997.2812633974
 20
-1236.7049532249
 10
994.7119577383
 20
-1229.0104078341
 10
992.3804254417
 20
-1221.094330791
 10
990.2887338107
 20
-1212.9637410551
 10
988.4387374885
 20
-1204.6258477885
 10
986.8320768143
 20
-1196.0880439631
 10
985.4701763681
 20
-1187.3578998061
 10
984.3542437082
 20
-1178.4431560872
 10
983.4852683002
 20
-1169.3517172553
 10
982.86402064
 20
-1160.0916444298
 10
982.4910515699
 20
-1150.6711482531
 10
982.3666917911
 20
-1141.0985816103
  0
LWPOLYLINE
  5
BD
330
1F
100
AcDbEntity
  8
0
  6
Continuous
 62
     7
370
    25
100
AcDbPolyline
 90
       74
 70
   128
 43
0.0
 10
1056.4007717814
 20
-1183.8375462643
 10
1056.5251315602
 20
-1174.1213968772
 10
1056.8981006302
 20
-1164.2702797782
 10
1057.5193482905
 20
-1154.2929296718
 10
1058.3883236984
 20
-1144.1981931897
 10
1059.5042563583
 20
-1133.9950210466
 10
1060.8661568045
 20
-1123.6924601043
 10
1062.4728174788
 20
-1113.2996453495
 10
1064.3228138009
 20
-1102.8257917945
 10
1066.4145054319
 20
-1092.2801863065
 10
1068.7460377286
 20
-1081.672179373
 10
1071.3153433877
 20
-1071.011176811
 10
1074.1201442792
 20
-1060.3066314274
 10
1077.1579534662
 20
-1049.5680346371
 10
1080.4260774101
 20
-1038.8049080475
 10
1083.9216183584
 20
-1028.0267950159
 10
1087.6414769148
 20
-1017.2432521876
 10
1091.5823547869
 20
-1006.4638410222
 10
1095.7407577106
 20
-995.6981193163
 10
1100.1129985488
 20
-984.9556327279
 10
1104.6952005603
 20
-974.2459063136
 10
1109.4833008372
 20
-963.5784360821
 10
1114.4730539076
 20
-952.9626805748
 10
1119.6600355
 20
-942.4080524795
 10
1125.0396464656
 20
-931.9239102836
 10
1130.6071168569
 20
-921.5195499768
 10
1136.3575101569
 20
-911.2041968087
 10
1142.2857276557
 20
-900.9869971086
 10
1148.3865129722
 20
-890.8770101759
 10
1154.654456714
 20
-880.8832002475
 10
1161.0840012742
 20
-871.0144285497
 10
1167.6694457592
 20
-861.2794454407
 10
1174.4049510432
 20
-851.6868826522
 10
1181.2845449458
 20
-842.245245636
 10
1188.3021275274
 20
-832.9629060223
 10
1195.4514764978
 20
-823.8480941968
 10
1202.7262527332
 20
-814.9088920029
 10
1210.1200058971
 20
-806.1532255764
 10
1217.6261801595
 20
-797.5888583167
 10
1225.2381200098
 20
-789.223384004
 10
1232.9490761582
 20
-781.0642200657
 10
1240.7522115199
 20
-773.1186009996
 10
1248.6406072774
 20
-765.3935719594
 10
1256.6072690151
 20
-757.8959825081
 10
1264.6451329216
 20
-750.6324805442
 10
1272.7470720521
 20
-743.6095064077
 10
1280.9059026484
 20
-736.8332871694
 10
1289.1143905082
 20
-730.3098311095
 10
1297.3652573995
 20
-724.0449223905
 10
1305.651187514
 20
-718.0441159281
 10
1313.964833954
 20
-712.3127324662
 10
1322.2988252464
 20
-706.855853859
 10
1330.6457718787
 20
-701.678318565
 10
1338.9982728517
 20
-696.7847173572
 10
1347.348922241
 20
-692.1793892519
 10
1355.6903157641
 20
-687.8664176624
 10
1364.0150573452
 20
-683.8496267774
 10
1372.3157656737
 20
-680.1325781709
 10
1380.5850807481
 20
-676.7185676437
 10
1388.8156704029
 20
-673.6106223015
 10
1397.0002368089
 20
-670.811497871
 10
1405.1315229446
 20
-668.3236762557
 10
1413.2023190308
 20
-666.1493633362
 10
1421.2054689226
 20
-664.2904870136
 10
1429.1338764555
 20
-662.7486955007
 10
1436.9805117367
 20
-661.5253558599
 10
1444.7384173786
 20
-660.6215527916
 10
1452.4007146676
 20
-660.0380876721
 10
1459.9606096633
 20
-659.7754778434
 10
1467.4113992225
 20
-659.8339561541
 10
1474.7464769428
 20
-660.2134707532
 10
1481.9593390198
 20
-660.9136851358
 10
1489.0435900148
 20
-661.9339784419
 10
1494.7429656852
 20
-663.0068887654
  0
LWPOLYLINE
  5
BE
330
1F
100
AcDbEntity
  8
0
  6
Continuous
 62
     7
370
    25
100
AcDbPolyline
 90
       22
 70
   128
 43
0.0
 10
1105.0430180807
 20
-1338.0601411491
 10
1104.6952005603
 20
-1337.6696256225
 10
1100.1129985488
 20
-1332.2503970391
 10
1095.7407577106
 20
-1326.5559922711
 10
1091.5823547869
 20
-1320.5914603847
 10
1087.6414769148
 20
-1314.3620899601
 10
1083.9216183584
 20
-1307.8734044024
 10
1080.4260774101
 20
-1301.1311570439
 10
1077.1579534662
 20
-1294.141326043
 10
1074.1201442792
 20
-1286.9101090834
 10
1071.3153433877
 20
-1279.4439178788
 10
1068.7460377286
 20
-1271.749372488
 10
1066.4145054319
 20
-1263.8332954449
 10
1064.3228138009
 20
-1255.702705709
 10
1062.4728174788
 20
-1247.3648124424
 10
1060.8661568045
 20
-1238.8270086171
 10
1059.5042563583
 20
-1230.0968644601
 10
1058.3883236984
 20
-1221.1821207412
 10
1057.5193482905
 20
-1212.0906819092
 10
1056.8981006302
 20
-1202.8306090837
 10
1056.5251315602
 20
-1193.410112907
 10
1056.4007717814
 20
-1183.8375462643
  0
LWPOLYLINE
  5
BF
330
1F
100
AcDbEntity
  8
0
  6
Continuous
 62
     7
370
    25
100
AcDbPolyline
 90
       54
 70
   128
 43
0.0
 10
1056.8337922
 20
-1201.579095357
 10
1056.896875349
 20
-1200.2073453524
 10
1057.5166356106
 20
-1189.7061900606
 10
1058.3836110993
 20
-1179.0865084816
 10
1059.4971135939
 20
-1168.3567307164
 10
1060.8562591753
 20
-1157.5253742623
 10
1062.4599689284
 20
-1146.6010372516
 10
1064.3069697986
 20
-1135.5923916265
 10
1066.3957956023
 20
-1124.5081762548
 10
1068.7247881905
 20
-1113.357189993
 10
1071.2920987658
 20
-1102.1482847016
 10
1074.095689349
 20
-1090.8903582182
 10
1077.1333343979
 20
-1079.5923472945
 10
1080.4026225731
 20
-1068.2632205019
 10
1083.900958653
 20
-1056.911971112
 10
1087.6255655933
 20
-1045.5476099581
 10
1091.5734867315
 20
-1034.1791582814
 10
1095.7415881344
 20
-1022.8156405707
 10
1100.1265610855
 20
-1011.4660773978
 10
1104.7249247117
 20
-1000.1394782572
 10
1109.5330287462
 20
-988.8448344142
 10
1114.5470564267
 20
-977.5911117673
 10
1119.7630275246
 20
-966.3872437311
 10
1125.176801505
 20
-955.2421241445
 10
1130.7840808132
 20
-944.164600211
 10
1136.5804142866
 20
-933.1634654753
 10
1142.5612006877
 20
-922.2474528429
 10
1148.7216923571
 20
-911.4252276479
 10
1155.0569989816
 20
-900.705380774
 10
1161.5620914771
 20
-890.0964218354
 10
1168.2318059799
 20
-879.6067724211
 10
1175.0608479465
 20
-869.24475941
 10
1182.0437963563
 20
-859.0186083611
 10
1189.1751080149
 20
-848.9364369833
 10
1196.4491219542
 20
-839.006248692
 10
1203.8600639267
 20
-829.2359262556
 10
1211.4020509886
 20
-819.6332255378
 10
1219.0690961702
 20
-810.2057693412
 10
1226.8551132283
 20
-800.9610413562
 10
1234.7539214776
 20
-791.9063802197
 10
1242.759250697
 20
-783.0489736905
 10
1250.8647461074
 20
-774.3958529427
 10
1259.0639734153
 20
-765.9538869846
 10
1267.3504239217
 20
-757.729777206
 10
1275.7175196879
 20
-749.7300520582
 10
1284.1586187574
 20
-741.9610618722
 10
1292.6670204286
 20
-734.4289738168
 10
1301.235970574
 20
-727.1397670039
 10
1309.8586670015
 20
-720.0992277414
 10
1318.5282648539
 20
-713.3129449404
 10
1327.2378820433
 20
-706.7863056787
 10
1335.9806047133
 20
-700.524490924
 10
1344.7494927279
 20
-694.5324714213
 10
1352.4447863644
 20
-689.5103504733
  0
ENDSEC
  0
SECTION
  2
OBJECTS
  0
DICTIONARY
  5
C
330
0
100
AcDbDictionary
281
     1
  3
ACAD_GROUP
350
D
  3
ACAD_LAYOUT
350
1A
  3
ACAD_MLINESTYLE
350
17
  3
ACAD_PLOTSETTINGS
350
19
  3
ACAD_PLOTSTYLENAME
350
E
  3
ACAD_SCALELIST
350
47
  0
DICTIONARY
  5
D
102
{ACAD_REACTORS
330
C
102
}
330
C
100
AcDbDictionary
281
     1
  0
DICTIONARY
  5
1A
102
{ACAD_REACTORS
330
C
102
}
330
C
100
AcDbDictionary
281
     1
  3
Layout1
350
1E
  3
Layout2
350
26
  3
Model
350
22
  0
DICTIONARY
  5
17
102
{ACAD_REACTORS
330
C
102
}
330
C
100
AcDbDictionary
281
     1
  3
Standard
350
18
  0
DICTIONARY
  5
19
102
{ACAD_REACTORS
330
C
102
}
330
C
100
AcDbDictionary
281
     1
  0
ACDBDICTIONARYWDFLT
  5
E
102
{ACAD_REACTORS
330
C
102
}
330
C
100
AcDbDictionary
281
     1
  3
Normal
350
F
100
AcDbDictionaryWithDefault
340
F
  0
DICTIONARY
  5
47
102
{ACAD_REACTORS
330
C
102
}
330
C
100
AcDbDictionary
281
     1
  3
A0
350
48
  3
A1
350
49
  3
A2
350
4A
  3
A3
350
4B
  3
A4
350
4C
  3
A5
350
4D
  3
A6
350
4E
  3
A7
350
4F
  3
A8
350
50
  3
A9
350
51
  3
B0
350
52
  3
B1
350
53
  3
B2
350
54
  3
B3
350
55
  3
B4
350
56
  3
B5
350
57
  3
B6
350
58
  3
B7
350
59
  3
B8
350
5A
  3
B9
350
5B
  3
C0
350
5C
  3
C1
350
5D
  3
C2
350
5E
  3
C3
350
5F
  3
C4
350
60
  3
C5
350
61
  3
C6
350
62
  3
C7
350
63
  3
C8
350
64
  3
C9
350
65
  3
D0
350
66
  3
D1
350
67
  3
D2
350
68
  0
LAYOUT
  5
1E
102
{ACAD_REACTORS
330
1A
102
}
330
1A
100
AcDbPlotSettings
  1

  2
none_device
  4

  6

 40
0.0
 41
0.0
 42
0.0
 43
0.0
 44
0.0
 45
0.0
 46
0.0
 47
0.0
 48
0.0
 49
0.0
140
0.0
141
0.0
142
1.0
143
1.0
 70
   688
 72
     1
 73
     0
 74
     5
  7

 75
    16
147
1.0
148
0.0
149
0.0
100
AcDbLayout
  1
Layout1
 70
     1
 71
     1
 10
0.0
 20
0.0
 11
420.0
 21
297.0
 12
0.0
 22
0.0
 32
0.0
 14
1.0000000000E+20
 24
1.0000000000E+20
 34
1.0000000000E+20
 15
-1.0000000000E+20
 25
-1.0000000000E+20
 35
-1.0000000000E+20
146
0.0
 13
0.0
 23
0.0
 33
0.0
 16
1.0
 26
0.0
 36
0.0
 17
0.0
 27
1.0
 37
0.0
 76
     0
330
1B
  0
LAYOUT
  5
26
102
{ACAD_REACTORS
330
1A
102
}
330
1A
100
AcDbPlotSettings
  1

  2
none_device
  4

  6

 40
0.0
 41
0.0
 42
0.0
 43
0.0
 44
0.0
 45
0.0
 46
0.0
 47
0.0
 48
0.0
 49
0.0
140
0.0
141
0.0
142
1.0
143
1.0
 70
   688
 72
     1
 73
     0
 74
     5
  7

 75
    16
147
1.0
148
0.0
149
0.0
100
AcDbLayout
  1
Layout2
 70
     1
 71
     2
 10
0.0
 20
0.0
 11
0.0
 21
0.0
 12
0.0
 22
0.0
 32
0.0
 14
0.0
 24
0.0
 34
0.0
 15
0.0
 25
0.0
 35
0.0
146
0.0
 13
0.0
 23
0.0
 33
0.0
 16
1.0
 26
0.0
 36
0.0
 17
0.0
 27
1.0
 37
0.0
 76
     0
330
23
  0
LAYOUT
  5
22
102
{ACAD_REACTORS
330
1A
102
}
330
1A
100
AcDbPlotSettings
  1

  2
none_device
  4
Letter_(8.50_x_11.00_Inches)
  6

 40
6.35
 41
6.35
 42
6.35000508
 43
6.35000508
 44
215.9
 45
279.4
 46
0.0
 47
0.0
 48
0.0
 49
0.0
140
0.0
141
0.0
142
1.0
143
1.0
 70
  1712
 72
     1
 73
     0
 74
     0
  7

 75
     0
147
1.0
148
0.0
149
0.0
100
AcDbLayout
  1
Model
 70
     1
 71
     0
 10
0.0
 20
0.0
 11
279.4
 21
215.9
 12
0.0
 22
0.0
 32
0.0
 14
0.0
 24
0.0
 34
0.0
 15
279.4
 25
215.9
 35
0.0
146
0.0
 13
0.0
 23
0.0
 33
0.0
 16
1.0
 26
0.0
 36
0.0
 17
0.0
 27
1.0
 37
0.0
 76
     0
330
1F
331
29
  0
MLINESTYLE
  5
18
102
{ACAD_REACTORS
330
17
102
}
330
17
100
AcDbMlineStyle
  2
Standard
 70
     0
  3

 62
   256
 51
90.0
 52
90.0
 71
     2
 49
0.5
 62
   256
  6
BYLAYER
 49
-0.5
 62
   256
  6
BYLAYER
  0
ACDBPLACEHOLDER
  5
F
102
{ACAD_REACTORS
330
E
102
}
330
E
  0
SCALE
  5
48
102
{ACAD_REACTORS
330
47
102
}
330
47
100
AcDbScale
 70
     0
300
1:1
140
1.0
141
1.0
290
     1
  0
SCALE
  5
49
102
{ACAD_REACTORS
330
47
102
}
330
47
100
AcDbScale
 70
     0
300
1:2
140
1.0
141
2.0
290
     0
  0
SCALE
  5
4A
102
{ACAD_REACTORS
330
47
102
}
330
47
100
AcDbScale
 70
     0
300
1:4
140
1.0
141
4.0
290
     0
  0
SCALE
  5
4B
102
{ACAD_REACTORS
330
47
102
}
330
47
100
AcDbScale
 70
     0
300
1:5
140
1.0
141
5.0
290
     0
  0
SCALE
  5
4C
102
{ACAD_REACTORS
330
47
102
}
330
47
100
AcDbScale
 70
     0
300
1:8
140
1.0
141
8.0
290
     0
  0
SCALE
  5
4D
102
{ACAD_REACTORS
330
47
102
}
330
47
100
AcDbScale
 70
     0
300
1:10
140
1.0
141
10.0
290
     0
  0
SCALE
  5
4E
102
{ACAD_REACTORS
330
47
102
}
330
47
100
AcDbScale
 70
     0
300
1:16
140
1.0
141
16.0
290
     0
  0
SCALE
  5
4F
102
{ACAD_REACTORS
330
47
102
}
330
47
100
AcDbScale
 70
     0
300
1:20
140
1.0
141
20.0
290
     0
  0
SCALE
  5
50
102
{ACAD_REACTORS
330
47
102
}
330
47
100
AcDbScale
 70
     0
300
1:30
140
1.0
141
30.0
290
     0
  0
SCALE
  5
51
102
{ACAD_REACTORS
330
47
102
}
330
47
100
AcDbScale
 70
     0
300
1:40
140
1.0
141
40.0
290
     0
  0
SCALE
  5
52
102
{ACAD_REACTORS
330
47
102
}
330
47
100
AcDbScale
 70
     0
300
1:50
140
1.0
141
50.0
290
     0
  0
SCALE
  5
53
102
{ACAD_REACTORS
330
47
102
}
330
47
100
AcDbScale
 70
     0
300
1:100
140
1.0
141
100.0
290
     0
  0
SCALE
  5
54
102
{ACAD_REACTORS
330
47
102
}
330
47
100
AcDbScale
 70
     0
300
2:1
140
2.0
141
1.0
290
     0
  0
SCALE
  5
55
102
{ACAD_REACTORS
330
47
102
}
330
47
100
AcDbScale
 70
     0
300
4:1
140
4.0
141
1.0
290
     0
  0
SCALE
  5
56
102
{ACAD_REACTORS
330
47
102
}
330
47
100
AcDbScale
 70
     0
300
8:1
140
8.0
141
1.0
290
     0
  0
SCALE
  5
57
102
{ACAD_REACTORS
330
47
102
}
330
47
100
AcDbScale
 70
     0
300
10:1
140
10.0
141
1.0
290
     0
  0
SCALE
  5
58
102
{ACAD_REACTORS
330
47
102
}
330
47
100
AcDbScale
 70
     0
300
100:1
140
100.0
141
1.0
290
     0
  0
SCALE
  5
59
102
{ACAD_REACTORS
330
47
102
}
330
47
100
AcDbScale
 70
     0
300
1/128" = 1'-0"
140
0.0078125
141
12.0
290
     0
  0
SCALE
  5
5A
102
{ACAD_REACTORS
330
47
102
}
330
47
100
AcDbScale
 70
     0
300
1/64" = 1'-0"
140
0.015625
141
12.0
290
     0
  0
SCALE
  5
5B
102
{ACAD_REACTORS
330
47
102
}
330
47
100
AcDbScale
 70
     0
300
1/32" = 1'-0"
140
0.03125
141
12.0
290
     0
  0
SCALE
  5
5C
102
{ACAD_REACTORS
330
47
102
}
330
47
100
AcDbScale
 70
     0
300
1/16" = 1'-0"
140
0.0625
141
12.0
290
     0
  0
SCALE
  5
5D
102
{ACAD_REACTORS
330
47
102
}
330
47
100
AcDbScale
 70
     0
300
3/32" = 1'-0"
140
0.09375
141
12.0
290
     0
  0
SCALE
  5
5E
102
{ACAD_REACTORS
330
47
102
}
330
47
100
AcDbScale
 70
     0
300
1/8" = 1'-0"
140
0.125
141
12.0
290
     0
  0
SCALE
  5
5F
102
{ACAD_REACTORS
330
47
102
}
330
47
100
AcDbScale
 70
     0
300
3/16" = 1'-0"
140
0.1875
141
12.0
290
     0
  0
SCALE
  5
60
102
{ACAD_REACTORS
330
47
102
}
330
47
100
AcDbScale
 70
     0
300
1/4" = 1'-0"
140
0.25
141
12.0
290
     0
  0
SCALE
  5
61
102
{ACAD_REACTORS
330
47
102
}
330
47
100
AcDbScale
 70
     0
300
3/8" = 1'-0"
140
0.375
141
12.0
290
     0
  0
SCALE
  5
62
102
{ACAD_REACTORS
330
47
102
}
330
47
100
AcDbScale
 70
     0
300
1/2" = 1'-0"
140
0.5
141
12.0
290
     0
  0
SCALE
  5
63
102
{ACAD_REACTORS
330
47
102
}
330
47
100
AcDbScale
 70
     0
300
3/4" = 1'-0"
140
0.75
141
12.0
290
     0
  0
SCALE
  5
64
102
{ACAD_REACTORS
330
47
102
}
330
47
100
AcDbScale
 70
     0
300
1" = 1'-0"
140
1.0
141
12.0
290
     0
  0
SCALE
  5
65
102
{ACAD_REACTORS
330
47
102
}
330
47
100
AcDbScale
 70
     0
300
1-1/2" = 1'-0"
140
1.5
141
12.0
290
     0
  0
SCALE
  5
66
102
{ACAD_REACTORS
330
47
102
}
330
47
100
AcDbScale
 70
     0
300
3" = 1'-0"
140
3.0
141
12.0
290
     0
  0
SCALE
  5
67
102
{ACAD_REACTORS
330
47
102
}
330
47
100
AcDbScale
 70
     0
300
6" = 1'-0"
140
6.0
141
12.0
290
     0
  0
SCALE
  5
68
102
{ACAD_REACTORS
330
47
102
}
330
47
100
AcDbScale
 70
     0
300
1'-0" = 1'-0"
140
12.0
141
12.0
290
     0
  0
ENDSEC
  0
EOF
